  0
SECTION
  2
HEADER
  9
$ACADVER
  1
AC1009
  9
$INSBASE
 10
0.0
 20
0.0
 30
0.0
  9
$EXTMIN
 10
12.0
 20
8.0
 30
0.0
  9
$EXTMAX
 10
2121.0
 20
1517.0
 30
0.0
  9
$LIMMIN
 10
0.0
 20
0.0
  9
$LIMMAX
 10
12.0
 20
9.0
  9
$ORTHOMODE
 70
     0
  9
$REGENMODE
 70
     1
  9
$FILLMODE
 70
     1
  9
$QTEXTMODE
 70
     0
  9
$MIRRTEXT
 70
     0
  9
$DRAGMODE
 70
     2
  9
$LTSCALE
 40
1.0
  9
$OSMODE
 70
    37
  9
$ATTMODE
 70
     1
  9
$TEXTSIZE
 40
0.2
  9
$TRACEWID
 40
0.05
  9
$TEXTSTYLE
  7
STANDARD
  9
$CLAYER
  8
0
  9
$CELTYPE
  6
CONTINUOUS
  9
$CECOLOR
 62
   256
  9
$DIMSCALE
 40
1.0
  9
$DIMASZ
 40
0.18
  9
$DIMEXO
 40
0.0625
  9
$DIMDLI
 40
0.38
  9
$DIMRND
 40
0.0
  9
$DIMDLE
 40
0.0
  9
$DIMEXE
 40
0.18
  9
$DIMTP
 40
0.0
  9
$DIMTM
 40
0.0
  9
$DIMTXT
 40
0.18
  9
$DIMCEN
 40
0.09
  9
$DIMTSZ
 40
0.0
  9
$DIMTOL
 70
     0
  9
$DIMLIM
 70
     0
  9
$DIMTIH
 70
     1
  9
$DIMTOH
 70
     1
  9
$DIMSE1
 70
     0
  9
$DIMSE2
 70
     0
  9
$DIMTAD
 70
     0
  9
$DIMZIN
 70
     0
  9
$DIMBLK
  1

  9
$DIMASO
 70
     1
  9
$DIMSHO
 70
     1
  9
$DIMPOST
  1

  9
$DIMAPOST
  1

  9
$DIMALT
 70
     0
  9
$DIMALTD
 70
     2
  9
$DIMALTF
 40
25.399999999999999
  9
$DIMLFAC
 40
1.0
  9
$DIMTOFL
 70
     0
  9
$DIMTVP
 40
0.0
  9
$DIMTIX
 70
     0
  9
$DIMSOXD
 70
     0
  9
$DIMSAH
 70
     0
  9
$DIMBLK1
  1

  9
$DIMBLK2
  1

  9
$DIMSTYLE
  2
STANDARD
  9
$DIMCLRD
 70
     0
  9
$DIMCLRE
 70
     0
  9
$DIMCLRT
 70
     0
  9
$DIMTFAC
 40
1.0
  9
$DIMGAP
 40
0.09
  9
$LUNITS
 70
     2
  9
$LUPREC
 70
     4
  9
$SKETCHINC
 40
0.1
  9
$FILLETRAD
 40
0.0
  9
$AUNITS
 70
     0
  9
$AUPREC
 70
     0
  9
$MENU
  1
.
  9
$ELEVATION
 40
0.0
  9
$PELEVATION
 40
0.0
  9
$THICKNESS
 40
0.0
  9
$LIMCHECK
 70
     0
  9
$BLIPMODE
 70
     0
  9
$CHAMFERA
 40
0.0
  9
$CHAMFERB
 40
0.0
  9
$SKPOLY
 70
     0
  9
$TDCREATE
 40
2454474.940390625
  9
$TDUPDATE
 40
2454474.940708912
  9
$TDINDWG
 40
0.0003188194
  9
$TDUSRTIMER
 40
0.0003188194
  9
$USRTIMER
 70
     1
  9
$ANGBASE
 50
0.0
  9
$ANGDIR
 70
     0
  9
$PDMODE
 70
     0
  9
$PDSIZE
 40
0.0
  9
$PLINEWID
 40
0.0
  9
$COORDS
 70
     1
  9
$SPLFRAME
 70
     0
  9
$SPLINETYPE
 70
     6
  9
$SPLINESEGS
 70
     8
  9
$ATTDIA
 70
     0
  9
$ATTREQ
 70
     1
  9
$HANDLING
 70
     1
  9
$HANDSEED
  5
77E
  9
$SURFTAB1
 70
     6
  9
$SURFTAB2
 70
     6
  9
$SURFTYPE
 70
     6
  9
$SURFU
 70
     6
  9
$SURFV
 70
     6
  9
$UCSNAME
  2

  9
$UCSORG
 10
0.0
 20
0.0
 30
0.0
  9
$UCSXDIR
 10
1.0
 20
0.0
 30
0.0
  9
$UCSYDIR
 10
0.0
 20
1.0
 30
0.0
  9
$PUCSNAME
  2

  9
$PUCSORG
 10
0.0
 20
0.0
 30
0.0
  9
$PUCSXDIR
 10
1.0
 20
0.0
 30
0.0
  9
$PUCSYDIR
 10
0.0
 20
1.0
 30
0.0
  9
$USERI1
 70
     0
  9
$USERI2
 70
     0
  9
$USERI3
 70
     0
  9
$USERI4
 70
     0
  9
$USERI5
 70
     0
  9
$USERR1
 40
0.0
  9
$USERR2
 40
0.0
  9
$USERR3
 40
0.0
  9
$USERR4
 40
0.0
  9
$USERR5
 40
0.0
  9
$WORLDVIEW
 70
     1
  9
$SHADEDGE
 70
     3
  9
$SHADEDIF
 70
    70
  9
$TILEMODE
 70
     1
  9
$MAXACTVP
 70
    64
  9
$PLIMCHECK
 70
     0
  9
$PEXTMIN
 10
1.0000000000000000E+020
 20
1.0000000000000000E+020
 30
1.0000000000000000E+020
  9
$PEXTMAX
 10
-1.0000000000000000E+020
 20
-1.0000000000000000E+020
 30
-1.0000000000000000E+020
  9
$PLIMMIN
 10
0.0
 20
0.0
  9
$PLIMMAX
 10
12.0
 20
9.0
  9
$UNITMODE
 70
     0
  9
$VISRETAIN
 70
     1
  9
$PLINEGEN
 70
     0
  9
$PSLTSCALE
 70
     1
  0
ENDSEC
  0
SECTION
  2
TABLES
  0
TABLE
  2
VPORT
 70
     1
  0
VPORT
  2
*ACTIVE
 70
     0
 10
0.0
 20
0.0
 11
1.0
 21
1.0
 12
1060.5
 22
758.49999999999989
 13
0.0
 23
0.0
 14
1.0
 24
1.0
 15
0.0
 25
0.0
 16
0.0
 26
0.0
 36
1.0
 17
0.0
 27
0.0
 37
0.0
 40
1534.370229007633
 41
2.338432122370937
 42
50.0
 43
0.0
 44
0.0
 50
0.0
 51
0.0
 71
     0
 72
   100
 73
     1
 74
     1
 75
     0
 76
     0
 77
     0
 78
     0
  0
ENDTAB
  0
TABLE
  2
LTYPE
 70
     1
  0
LTYPE
  2
CONTINUOUS
 70
     0
  3
Solid line
 72
    65
 73
     0
 40
0.0
  0
ENDTAB
  0
TABLE
  2
LAYER
 70
     2
  0
LAYER
  2
0
 70
     0
 62
     7
  6
CONTINUOUS
  0
LAYER
  2
R2V
 70
     0
 62
     7
  6
CONTINUOUS
  0
ENDTAB
  0
TABLE
  2
STYLE
 70
     1
  0
STYLE
  2
STANDARD
 70
     0
 40
0.0
 41
1.0
 50
0.0
 71
     0
 42
0.2
  3
txt
  4

  0
ENDTAB
  0
TABLE
  2
VIEW
 70
     0
  0
ENDTAB
  0
TABLE
  2
UCS
 70
     0
  0
ENDTAB
  0
TABLE
  2
APPID
 70
     1
  0
APPID
  2
ACAD
 70
     0
  0
ENDTAB
  0
TABLE
  2
DIMSTYLE
 70
     1
  0
DIMSTYLE
  2
STANDARD
 70
     0
  3

  4

  5

  6

  7

 40
1.0
 41
0.18
 42
0.0625
 43
0.38
 44
0.18
 45
0.0
 46
0.0
 47
0.0
 48
0.0
140
0.18
141
0.09
142
0.0
143
25.399999999999999
144
1.0
145
0.0
146
1.0
147
0.09
 71
     0
 72
     0
 73
     1
 74
     1
 75
     0
 76
     0
 77
     0
 78
     0
170
     0
171
     2
172
     0
173
     0
174
     0
175
     0
176
     0
177
     0
178
     0
  0
ENDTAB
  0
ENDSEC
  0
SECTION
  2
BLOCKS
  0
BLOCK
  8
0
  2
$MODEL_SPACE
 70
     0
 10
0.0
 20
0.0
 30
0.0
  3
$MODEL_SPACE
  1

  0
ENDBLK
  5
38
  8
0
  0
BLOCK
 67
     1
  8
0
  2
$PAPER_SPACE
 70
     0
 10
0.0
 20
0.0
 30
0.0
  3
$PAPER_SPACE
  1

  0
ENDBLK
  5
34
 67
     1
  8
0
  0
ENDSEC
  0
SECTION
  2
ENTITIES
  0
POLYLINE
  5
3D
  8
R2V
 62
     0
 66
     1
 10
0.0
 20
0.0
 30
0.0
 70
     8
  0
VERTEX
  5
3E
  8
R2V
 62
     0
 10
1240.0
 20
41.0
 30
0.0
 70
    32
  0
VERTEX
  5
3F
  8
R2V
 62
     0
 10
1249.0
 20
58.0
 30
0.0
 70
    32
  0
VERTEX
  5
40
  8
R2V
 62
     0
 10
1261.0
 20
34.0
 30
0.0
 70
    32
  0
SEQEND
  5
41
  8
R2V
 62
     0
  0
POLYLINE
  5
42
  8
R2V
 62
     0
 66
     1
 10
0.0
 20
0.0
 30
0.0
 70
     8
  0
VERTEX
  5
43
  8
R2V
 62
     0
 10
1240.0
 20
41.0
 30
0.0
 70
    32
  0
VERTEX
  5
44
  8
R2V
 62
     0
 10
1255.0
 20
41.0
 30
0.0
 70
    32
  0
SEQEND
  5
45
  8
R2V
 62
     0
  0
POLYLINE
  5
46
  8
R2V
 62
     0
 66
     1
 10
0.0
 20
0.0
 30
0.0
 70
     8
  0
VERTEX
  5
47
  8
R2V
 62
     0
 10
1240.0
 20
41.0
 30
0.0
 70
    32
  0
VERTEX
  5
48
  8
R2V
 62
     0
 10
1236.0
 20
33.0
 30
0.0
 70
    32
  0
SEQEND
  5
49
  8
R2V
 62
     0
  0
POLYLINE
  5
4A
  8
R2V
 62
     0
 66
     1
 10
0.0
 20
0.0
 30
0.0
 70
     8
  0
VERTEX
  5
4B
  8
R2V
 62
     0
 10
1270.0
 20
45.0
 30
0.0
 70
    32
  0
VERTEX
  5
4C
  8
R2V
 62
     0
 10
1270.0
 20
59.0
 30
0.0
 70
    32
  0
VERTEX
  5
4D
  8
R2V
 62
     0
 10
1286.0
 20
59.0
 30
0.0
 70
    32
  0
VERTEX
  5
4E
  8
R2V
 62
     0
 10
1292.0
 20
54.0
 30
0.0
 70
    32
  0
VERTEX
  5
4F
  8
R2V
 62
     0
 10
1290.0
 20
48.0
 30
0.0
 70
    32
  0
VERTEX
  5
50
  8
R2V
 62
     0
 10
1285.0
 20
45.0
 30
0.0
 70
    32
  0
VERTEX
  5
51
  8
R2V
 62
     0
 10
1270.0
 20
45.0
 30
0.0
 70
    32
  0
VERTEX
  5
52
  8
R2V
 62
     0
 10
1270.0
 20
33.0
 30
0.0
 70
    32
  0
SEQEND
  5
53
  8
R2V
 62
     0
  0
POLYLINE
  5
54
  8
R2V
 62
     0
 66
     1
 10
0.0
 20
0.0
 30
0.0
 70
     8
  0
VERTEX
  5
55
  8
R2V
 62
     0
 10
1522.0
 20
46.0
 30
0.0
 70
    32
  0
VERTEX
  5
56
  8
R2V
 62
     0
 10
1522.0
 20
55.0
 30
0.0
 70
    32
  0
VERTEX
  5
57
  8
R2V
 62
     0
 10
1516.0
 20
59.0
 30
0.0
 70
    32
  0
VERTEX
  5
58
  8
R2V
 62
     0
 10
1506.0
 20
56.0
 30
0.0
 70
    32
  0
VERTEX
  5
59
  8
R2V
 62
     0
 10
1503.0
 20
49.0
 30
0.0
 70
    32
  0
VERTEX
  5
5A
  8
R2V
 62
     0
 10
1511.0
 20
42.0
 30
0.0
 70
    32
  0
VERTEX
  5
5B
  8
R2V
 62
     0
 10
1521.0
 20
45.0
 30
0.0
 70
    32
  0
VERTEX
  5
5C
  8
R2V
 62
     0
 10
1523.0
 20
46.0
 30
0.0
 70
    32
  0
VERTEX
  5
5D
  8
R2V
 62
     0
 10
1520.0
 20
34.0
 30
0.0
 70
    32
  0
VERTEX
  5
5E
  8
R2V
 62
     0
 10
1509.0
 20
32.0
 30
0.0
 70
    32
  0
VERTEX
  5
5F
  8
R2V
 62
     0
 10
1505.0
 20
35.0
 30
0.0
 70
    32
  0
SEQEND
  5
60
  8
R2V
 62
     0
  0
POLYLINE
  5
61
  8
R2V
 62
     0
 66
     1
 10
0.0
 20
0.0
 30
0.0
 70
     8
  0
VERTEX
  5
62
  8
R2V
 62
     0
 10
952.0
 20
47.0
 30
0.0
 70
    32
  0
VERTEX
  5
63
  8
R2V
 62
     0
 10
952.0
 20
34.0
 30
0.0
 70
    32
  0
SEQEND
  5
64
  8
R2V
 62
     0
  0
POLYLINE
  5
65
  8
R2V
 62
     0
 66
     1
 10
0.0
 20
0.0
 30
0.0
 70
     8
  0
VERTEX
  5
66
  8
R2V
 62
     0
 10
952.0
 20
47.0
 30
0.0
 70
    32
  0
VERTEX
  5
67
  8
R2V
 62
     0
 10
963.0
 20
58.0
 30
0.0
 70
    32
  0
SEQEND
  5
68
  8
R2V
 62
     0
  0
POLYLINE
  5
69
  8
R2V
 62
     0
 66
     1
 10
0.0
 20
0.0
 30
0.0
 70
     8
  0
VERTEX
  5
6A
  8
R2V
 62
     0
 10
952.0
 20
47.0
 30
0.0
 70
    32
  0
VERTEX
  5
6B
  8
R2V
 62
     0
 10
940.0
 20
59.0
 30
0.0
 70
    32
  0
SEQEND
  5
6C
  8
R2V
 62
     0
  0
POLYLINE
  5
6D
  8
R2V
 62
     0
 66
     1
 10
0.0
 20
0.0
 30
0.0
 70
     8
  0
VERTEX
  5
6E
  8
R2V
 62
     0
 10
1033.0
 20
47.0
 30
0.0
 70
    32
  0
VERTEX
  5
6F
  8
R2V
 62
     0
 10
1033.0
 20
59.0
 30
0.0
 70
    32
  0
VERTEX
  5
70
  8
R2V
 62
     0
 10
1052.0
 20
59.0
 30
0.0
 70
    32
  0
SEQEND
  5
71
  8
R2V
 62
     0
  0
POLYLINE
  5
72
  8
R2V
 62
     0
 66
     1
 10
0.0
 20
0.0
 30
0.0
 70
     8
  0
VERTEX
  5
73
  8
R2V
 62
     0
 10
1033.0
 20
47.0
 30
0.0
 70
    32
  0
VERTEX
  5
74
  8
R2V
 62
     0
 10
1045.0
 20
47.0
 30
0.0
 70
    32
  0
SEQEND
  5
75
  8
R2V
 62
     0
  0
POLYLINE
  5
76
  8
R2V
 62
     0
 66
     1
 10
0.0
 20
0.0
 30
0.0
 70
     8
  0
VERTEX
  5
77
  8
R2V
 62
     0
 10
1033.0
 20
47.0
 30
0.0
 70
    32
  0
VERTEX
  5
78
  8
R2V
 62
     0
 10
1033.0
 20
33.0
 30
0.0
 70
    32
  0
SEQEND
  5
79
  8
R2V
 62
     0
  0
POLYLINE
  5
7A
  8
R2V
 62
     0
 66
     1
 10
0.0
 20
0.0
 30
0.0
 70
     8
  0
VERTEX
  5
7B
  8
R2V
 62
     0
 10
1207.0
 20
47.0
 30
0.0
 70
    32
  0
VERTEX
  5
7C
  8
R2V
 62
     0
 10
1207.0
 20
59.0
 30
0.0
 70
    32
  0
VERTEX
  5
7D
  8
R2V
 62
     0
 10
1226.0
 20
59.0
 30
0.0
 70
    32
  0
SEQEND
  5
7E
  8
R2V
 62
     0
  0
POLYLINE
  5
7F
  8
R2V
 62
     0
 66
     1
 10
0.0
 20
0.0
 30
0.0
 70
     8
  0
VERTEX
  5
80
  8
R2V
 62
     0
 10
1207.0
 20
47.0
 30
0.0
 70
    32
  0
VERTEX
  5
81
  8
R2V
 62
     0
 10
1218.0
 20
47.0
 30
0.0
 70
    32
  0
SEQEND
  5
82
  8
R2V
 62
     0
  0
POLYLINE
  5
83
  8
R2V
 62
     0
 66
     1
 10
0.0
 20
0.0
 30
0.0
 70
     8
  0
VERTEX
  5
84
  8
R2V
 62
     0
 10
1207.0
 20
47.0
 30
0.0
 70
    32
  0
VERTEX
  5
85
  8
R2V
 62
     0
 10
1207.0
 20
33.0
 30
0.0
 70
    32
  0
VERTEX
  5
86
  8
R2V
 62
     0
 10
1226.0
 20
33.0
 30
0.0
 70
    32
  0
SEQEND
  5
87
  8
R2V
 62
     0
  0
POLYLINE
  5
88
  8
R2V
 62
     0
 66
     1
 10
0.0
 20
0.0
 30
0.0
 70
     8
  0
VERTEX
  5
89
  8
R2V
 62
     0
 10
1090.0
 20
56.0
 30
0.0
 70
    32
  0
VERTEX
  5
8A
  8
R2V
 62
     0
 10
1090.0
 20
59.0
 30
0.0
 70
    32
  0
SEQEND
  5
8B
  8
R2V
 62
     0
  0
POLYLINE
  5
8C
  8
R2V
 62
     0
 66
     1
 10
0.0
 20
0.0
 30
0.0
 70
     8
  0
VERTEX
  5
8D
  8
R2V
 62
     0
 10
1090.0
 20
56.0
 30
0.0
 70
    32
  0
VERTEX
  5
8E
  8
R2V
 62
     0
 10
1091.0
 20
56.0
 30
0.0
 70
    32
  0
VERTEX
  5
8F
  8
R2V
 62
     0
 10
1103.0
 20
34.0
 30
0.0
 70
    32
  0
VERTEX
  5
90
  8
R2V
 62
     0
 10
1115.0
 20
56.0
 30
0.0
 70
    32
  0
VERTEX
  5
91
  8
R2V
 62
     0
 10
1115.0
 20
34.0
 30
0.0
 70
    32
  0
SEQEND
  5
92
  8
R2V
 62
     0
  0
POLYLINE
  5
93
  8
R2V
 62
     0
 66
     1
 10
0.0
 20
0.0
 30
0.0
 70
     8
  0
VERTEX
  5
94
  8
R2V
 62
     0
 10
1090.0
 20
56.0
 30
0.0
 70
    32
  0
VERTEX
  5
95
  8
R2V
 62
     0
 10
1090.0
 20
33.0
 30
0.0
 70
    32
  0
SEQEND
  5
96
  8
R2V
 62
     0
  0
POLYLINE
  5
97
  8
R2V
 62
     0
 66
     1
 10
0.0
 20
0.0
 30
0.0
 70
     8
  0
VERTEX
  5
98
  8
R2V
 62
     0
 10
1115.0
 20
56.0
 30
0.0
 70
    32
  0
VERTEX
  5
99
  8
R2V
 62
     0
 10
1115.0
 20
59.0
 30
0.0
 70
    32
  0
SEQEND
  5
9A
  8
R2V
 62
     0
  0
POLYLINE
  5
9B
  8
R2V
 62
     0
 66
     1
 10
0.0
 20
0.0
 30
0.0
 70
     8
  0
VERTEX
  5
9C
  8
R2V
 62
     0
 10
923.0
 20
59.0
 30
0.0
 70
    32
  0
VERTEX
  5
9D
  8
R2V
 62
     0
 10
932.0
 20
59.0
 30
0.0
 70
    32
  0
SEQEND
  5
9E
  8
R2V
 62
     0
  0
POLYLINE
  5
9F
  8
R2V
 62
     0
 66
     1
 10
0.0
 20
0.0
 30
0.0
 70
     8
  0
VERTEX
  5
A0
  8
R2V
 62
     0
 10
923.0
 20
59.0
 30
0.0
 70
    32
  0
VERTEX
  5
A1
  8
R2V
 62
     0
 10
923.0
 20
34.0
 30
0.0
 70
    32
  0
SEQEND
  5
A2
  8
R2V
 62
     0
  0
POLYLINE
  5
A3
  8
R2V
 62
     0
 66
     1
 10
0.0
 20
0.0
 30
0.0
 70
     8
  0
VERTEX
  5
A4
  8
R2V
 62
     0
 10
923.0
 20
59.0
 30
0.0
 70
    32
  0
VERTEX
  5
A5
  8
R2V
 62
     0
 10
912.0
 20
59.0
 30
0.0
 70
    32
  0
SEQEND
  5
A6
  8
R2V
 62
     0
  0
POLYLINE
  5
A7
  8
R2V
 62
     0
 66
     1
 10
0.0
 20
0.0
 30
0.0
 70
     8
  0
VERTEX
  5
A8
  8
R2V
 62
     0
 10
1067.0
 20
74.0
 30
0.0
 70
    32
  0
VERTEX
  5
A9
  8
R2V
 62
     0
 10
1067.0
 20
73.0
 30
0.0
 70
    32
  0
SEQEND
  5
AA
  8
R2V
 62
     0
  0
POLYLINE
  5
AB
  8
R2V
 62
     0
 66
     1
 10
0.0
 20
0.0
 30
0.0
 70
     8
  0
VERTEX
  5
AC
  8
R2V
 62
     0
 10
1067.0
 20
74.0
 30
0.0
 70
    32
  0
VERTEX
  5
AD
  8
R2V
 62
     0
 10
1080.0
 20
97.0
 30
0.0
 70
    32
  0
VERTEX
  5
AE
  8
R2V
 62
     0
 10
1080.0
 20
74.0
 30
0.0
 70
    32
  0
SEQEND
  5
AF
  8
R2V
 62
     0
  0
POLYLINE
  5
B0
  8
R2V
 62
     0
 66
     1
 10
0.0
 20
0.0
 30
0.0
 70
     8
  0
VERTEX
  5
B1
  8
R2V
 62
     0
 10
1067.0
 20
74.0
 30
0.0
 70
    32
  0
VERTEX
  5
B2
  8
R2V
 62
     0
 10
1055.0
 20
100.0
 30
0.0
 70
    32
  0
SEQEND
  5
B3
  8
R2V
 62
     0
  0
POLYLINE
  5
B4
  8
R2V
 62
     0
 66
     1
 10
0.0
 20
0.0
 30
0.0
 70
     8
  0
VERTEX
  5
B5
  8
R2V
 62
     0
 10
1509.0
 20
74.0
 30
0.0
 70
    32
  0
VERTEX
  5
B6
  8
R2V
 62
     0
 10
1509.0
 20
73.0
 30
0.0
 70
    32
  0
SEQEND
  5
B7
  8
R2V
 62
     0
  0
POLYLINE
  5
B8
  8
R2V
 62
     0
 66
     1
 10
0.0
 20
0.0
 30
0.0
 70
     8
  0
VERTEX
  5
B9
  8
R2V
 62
     0
 10
1509.0
 20
74.0
 30
0.0
 70
    32
  0
VERTEX
  5
BA
  8
R2V
 62
     0
 10
1516.0
 20
100.0
 30
0.0
 70
    32
  0
SEQEND
  5
BB
  8
R2V
 62
     0
  0
POLYLINE
  5
BC
  8
R2V
 62
     0
 66
     1
 10
0.0
 20
0.0
 30
0.0
 70
     8
  0
VERTEX
  5
BD
  8
R2V
 62
     0
 10
1509.0
 20
74.0
 30
0.0
 70
    32
  0
VERTEX
  5
BE
  8
R2V
 62
     0
 10
1501.0
 20
100.0
 30
0.0
 70
    32
  0
SEQEND
  5
BF
  8
R2V
 62
     0
  0
POLYLINE
  5
C0
  8
R2V
 62
     0
 66
     1
 10
0.0
 20
0.0
 30
0.0
 70
     8
  0
VERTEX
  5
C1
  8
R2V
 62
     0
 10
1524.0
 20
74.0
 30
0.0
 70
    32
  0
VERTEX
  5
C2
  8
R2V
 62
     0
 10
1524.0
 20
73.0
 30
0.0
 70
    32
  0
SEQEND
  5
C3
  8
R2V
 62
     0
  0
POLYLINE
  5
C4
  8
R2V
 62
     0
 66
     1
 10
0.0
 20
0.0
 30
0.0
 70
     8
  0
VERTEX
  5
C5
  8
R2V
 62
     0
 10
1524.0
 20
74.0
 30
0.0
 70
    32
  0
VERTEX
  5
C6
  8
R2V
 62
     0
 10
1532.0
 20
99.0
 30
0.0
 70
    32
  0
SEQEND
  5
C7
  8
R2V
 62
     0
  0
POLYLINE
  5
C8
  8
R2V
 62
     0
 66
     1
 10
0.0
 20
0.0
 30
0.0
 70
     8
  0
VERTEX
  5
C9
  8
R2V
 62
     0
 10
1524.0
 20
74.0
 30
0.0
 70
    32
  0
VERTEX
  5
CA
  8
R2V
 62
     0
 10
1516.0
 20
99.0
 30
0.0
 70
    32
  0
SEQEND
  5
CB
  8
R2V
 62
     0
  0
POLYLINE
  5
CC
  8
R2V
 62
     0
 66
     1
 10
0.0
 20
0.0
 30
0.0
 70
     8
  0
VERTEX
  5
CD
  8
R2V
 62
     0
 10
965.0
 20
82.0
 30
0.0
 70
    32
  0
VERTEX
  5
CE
  8
R2V
 62
     0
 10
973.0
 20
100.0
 30
0.0
 70
    32
  0
SEQEND
  5
CF
  8
R2V
 62
     0
  0
POLYLINE
  5
D0
  8
R2V
 62
     0
 66
     1
 10
0.0
 20
0.0
 30
0.0
 70
     8
  0
VERTEX
  5
D1
  8
R2V
 62
     0
 10
965.0
 20
82.0
 30
0.0
 70
    32
  0
VERTEX
  5
D2
  8
R2V
 62
     0
 10
981.0
 20
83.0
 30
0.0
 70
    32
  0
VERTEX
  5
D3
  8
R2V
 62
     0
 10
973.0
 20
99.0
 30
0.0
 70
    32
  0
SEQEND
  5
D4
  8
R2V
 62
     0
  0
POLYLINE
  5
D5
  8
R2V
 62
     0
 66
     1
 10
0.0
 20
0.0
 30
0.0
 70
     8
  0
VERTEX
  5
D6
  8
R2V
 62
     0
 10
965.0
 20
82.0
 30
0.0
 70
    32
  0
VERTEX
  5
D7
  8
R2V
 62
     0
 10
961.0
 20
73.0
 30
0.0
 70
    32
  0
SEQEND
  5
D8
  8
R2V
 62
     0
  0
POLYLINE
  5
D9
  8
R2V
 62
     0
 66
     1
 10
0.0
 20
0.0
 30
0.0
 70
     8
  0
VERTEX
  5
DA
  8
R2V
 62
     0
 10
981.0
 20
83.0
 30
0.0
 70
    32
  0
VERTEX
  5
DB
  8
R2V
 62
     0
 10
986.0
 20
74.0
 30
0.0
 70
    32
  0
SEQEND
  5
DC
  8
R2V
 62
     0
  0
POLYLINE
  5
DD
  8
R2V
 62
     0
 66
     1
 10
0.0
 20
0.0
 30
0.0
 70
     8
  0
VERTEX
  5
DE
  8
R2V
 62
     0
 10
1604.0
 20
83.0
 30
0.0
 70
    32
  0
VERTEX
  5
DF
  8
R2V
 62
     0
 10
1604.0
 20
99.0
 30
0.0
 70
    32
  0
SEQEND
  5
E0
  8
R2V
 62
     0
  0
POLYLINE
  5
E1
  8
R2V
 62
     0
 66
     1
 10
0.0
 20
0.0
 30
0.0
 70
     8
  0
VERTEX
  5
E2
  8
R2V
 62
     0
 10
1604.0
 20
83.0
 30
0.0
 70
    32
  0
VERTEX
  5
E3
  8
R2V
 62
     0
 10
1612.0
 20
88.0
 30
0.0
 70
    32
  0
VERTEX
  5
E4
  8
R2V
 62
     0
 10
1625.0
 20
74.0
 30
0.0
 70
    32
  0
SEQEND
  5
E5
  8
R2V
 62
     0
  0
POLYLINE
  5
E6
  8
R2V
 62
     0
 66
     1
 10
0.0
 20
0.0
 30
0.0
 70
     8
  0
VERTEX
  5
E7
  8
R2V
 62
     0
 10
1604.0
 20
83.0
 30
0.0
 70
    32
  0
VERTEX
  5
E8
  8
R2V
 62
     0
 10
1604.0
 20
73.0
 30
0.0
 70
    32
  0
SEQEND
  5
E9
  8
R2V
 62
     0
  0
POLYLINE
  5
EA
  8
R2V
 62
     0
 66
     1
 10
0.0
 20
0.0
 30
0.0
 70
     8
  0
VERTEX
  5
EB
  8
R2V
 62
     0
 10
929.0
 20
86.0
 30
0.0
 70
    32
  0
VERTEX
  5
EC
  8
R2V
 62
     0
 10
929.0
 20
100.0
 30
0.0
 70
    32
  0
VERTEX
  5
ED
  8
R2V
 62
     0
 10
945.0
 20
100.0
 30
0.0
 70
    32
  0
VERTEX
  5
EE
  8
R2V
 62
     0
 10
950.0
 20
95.0
 30
0.0
 70
    32
  0
VERTEX
  5
EF
  8
R2V
 62
     0
 10
948.0
 20
88.0
 30
0.0
 70
    32
  0
VERTEX
  5
F0
  8
R2V
 62
     0
 10
944.0
 20
86.0
 30
0.0
 70
    32
  0
VERTEX
  5
F1
  8
R2V
 62
     0
 10
929.0
 20
86.0
 30
0.0
 70
    32
  0
VERTEX
  5
F2
  8
R2V
 62
     0
 10
929.0
 20
73.0
 30
0.0
 70
    32
  0
SEQEND
  5
F3
  8
R2V
 62
     0
  0
POLYLINE
  5
F4
  8
R2V
 62
     0
 66
     1
 10
0.0
 20
0.0
 30
0.0
 70
     8
  0
VERTEX
  5
F5
  8
R2V
 62
     0
 10
1303.0
 20
86.0
 30
0.0
 70
    32
  0
VERTEX
  5
F6
  8
R2V
 62
     0
 10
1303.0
 20
100.0
 30
0.0
 70
    32
  0
VERTEX
  5
F7
  8
R2V
 62
     0
 10
1318.0
 20
100.0
 30
0.0
 70
    32
  0
VERTEX
  5
F8
  8
R2V
 62
     0
 10
1324.0
 20
95.0
 30
0.0
 70
    32
  0
VERTEX
  5
F9
  8
R2V
 62
     0
 10
1322.0
 20
88.0
 30
0.0
 70
    32
  0
VERTEX
  5
FA
  8
R2V
 62
     0
 10
1318.0
 20
86.0
 30
0.0
 70
    32
  0
VERTEX
  5
FB
  8
R2V
 62
     0
 10
1303.0
 20
86.0
 30
0.0
 70
    32
  0
VERTEX
  5
FC
  8
R2V
 62
     0
 10
1303.0
 20
73.0
 30
0.0
 70
    32
  0
SEQEND
  5
FD
  8
R2V
 62
     0
  0
POLYLINE
  5
FE
  8
R2V
 62
     0
 66
     1
 10
0.0
 20
0.0
 30
0.0
 70
     8
  0
VERTEX
  5
FF
  8
R2V
 62
     0
 10
900.0
 20
87.0
 30
0.0
 70
    32
  0
VERTEX
  5
100
  8
R2V
 62
     0
 10
900.0
 20
100.0
 30
0.0
 70
    32
  0
VERTEX
  5
101
  8
R2V
 62
     0
 10
919.0
 20
100.0
 30
0.0
 70
    32
  0
SEQEND
  5
102
  8
R2V
 62
     0
  0
POLYLINE
  5
103
  8
R2V
 62
     0
 66
     1
 10
0.0
 20
0.0
 30
0.0
 70
     8
  0
VERTEX
  5
104
  8
R2V
 62
     0
 10
900.0
 20
87.0
 30
0.0
 70
    32
  0
VERTEX
  5
105
  8
R2V
 62
     0
 10
911.0
 20
87.0
 30
0.0
 70
    32
  0
SEQEND
  5
106
  8
R2V
 62
     0
  0
POLYLINE
  5
107
  8
R2V
 62
     0
 66
     1
 10
0.0
 20
0.0
 30
0.0
 70
     8
  0
VERTEX
  5
108
  8
R2V
 62
     0
 10
900.0
 20
87.0
 30
0.0
 70
    32
  0
VERTEX
  5
109
  8
R2V
 62
     0
 10
900.0
 20
73.0
 30
0.0
 70
    32
  0
VERTEX
  5
10A
  8
R2V
 62
     0
 10
919.0
 20
73.0
 30
0.0
 70
    32
  0
SEQEND
  5
10B
  8
R2V
 62
     0
  0
POLYLINE
  5
10C
  8
R2V
 62
     0
 66
     1
 10
0.0
 20
0.0
 30
0.0
 70
     8
  0
VERTEX
  5
10D
  8
R2V
 62
     0
 10
995.0
 20
87.0
 30
0.0
 70
    32
  0
VERTEX
  5
10E
  8
R2V
 62
     0
 10
995.0
 20
100.0
 30
0.0
 70
    32
  0
VERTEX
  5
10F
  8
R2V
 62
     0
 10
1011.0
 20
100.0
 30
0.0
 70
    32
  0
VERTEX
  5
110
  8
R2V
 62
     0
 10
1016.0
 20
95.0
 30
0.0
 70
    32
  0
VERTEX
  5
111
  8
R2V
 62
     0
 10
1013.0
 20
88.0
 30
0.0
 70
    32
  0
VERTEX
  5
112
  8
R2V
 62
     0
 10
995.0
 20
87.0
 30
0.0
 70
    32
  0
VERTEX
  5
113
  8
R2V
 62
     0
 10
995.0
 20
73.0
 30
0.0
 70
    32
  0
SEQEND
  5
114
  8
R2V
 62
     0
  0
POLYLINE
  5
115
  8
R2V
 62
     0
 66
     1
 10
0.0
 20
0.0
 30
0.0
 70
     8
  0
VERTEX
  5
116
  8
R2V
 62
     0
 10
1007.0
 20
87.0
 30
0.0
 70
    32
  0
VERTEX
  5
117
  8
R2V
 62
     0
 10
1015.0
 20
74.0
 30
0.0
 70
    32
  0
SEQEND
  5
118
  8
R2V
 62
     0
  0
POLYLINE
  5
119
  8
R2V
 62
     0
 66
     1
 10
0.0
 20
0.0
 30
0.0
 70
     8
  0
VERTEX
  5
11A
  8
R2V
 62
     0
 10
1092.0
 20
87.0
 30
0.0
 70
    32
  0
VERTEX
  5
11B
  8
R2V
 62
     0
 10
1092.0
 20
100.0
 30
0.0
 70
    32
  0
VERTEX
  5
11C
  8
R2V
 62
     0
 10
1111.0
 20
100.0
 30
0.0
 70
    32
  0
SEQEND
  5
11D
  8
R2V
 62
     0
  0
POLYLINE
  5
11E
  8
R2V
 62
     0
 66
     1
 10
0.0
 20
0.0
 30
0.0
 70
     8
  0
VERTEX
  5
11F
  8
R2V
 62
     0
 10
1092.0
 20
87.0
 30
0.0
 70
    32
  0
VERTEX
  5
120
  8
R2V
 62
     0
 10
1103.0
 20
87.0
 30
0.0
 70
    32
  0
SEQEND
  5
121
  8
R2V
 62
     0
  0
POLYLINE
  5
122
  8
R2V
 62
     0
 66
     1
 10
0.0
 20
0.0
 30
0.0
 70
     8
  0
VERTEX
  5
123
  8
R2V
 62
     0
 10
1092.0
 20
87.0
 30
0.0
 70
    32
  0
VERTEX
  5
124
  8
R2V
 62
     0
 10
1092.0
 20
73.0
 30
0.0
 70
    32
  0
VERTEX
  5
125
  8
R2V
 62
     0
 10
1111.0
 20
73.0
 30
0.0
 70
    32
  0
SEQEND
  5
126
  8
R2V
 62
     0
  0
POLYLINE
  5
127
  8
R2V
 62
     0
 66
     1
 10
0.0
 20
0.0
 30
0.0
 70
     8
  0
VERTEX
  5
128
  8
R2V
 62
     0
 10
1246.0
 20
87.0
 30
0.0
 70
    32
  0
VERTEX
  5
129
  8
R2V
 62
     0
 10
1246.0
 20
100.0
 30
0.0
 70
    32
  0
VERTEX
  5
12A
  8
R2V
 62
     0
 10
1265.0
 20
100.0
 30
0.0
 70
    32
  0
SEQEND
  5
12B
  8
R2V
 62
     0
  0
POLYLINE
  5
12C
  8
R2V
 62
     0
 66
     1
 10
0.0
 20
0.0
 30
0.0
 70
     8
  0
VERTEX
  5
12D
  8
R2V
 62
     0
 10
1246.0
 20
87.0
 30
0.0
 70
    32
  0
VERTEX
  5
12E
  8
R2V
 62
     0
 10
1257.0
 20
87.0
 30
0.0
 70
    32
  0
SEQEND
  5
12F
  8
R2V
 62
     0
  0
POLYLINE
  5
130
  8
R2V
 62
     0
 66
     1
 10
0.0
 20
0.0
 30
0.0
 70
     8
  0
VERTEX
  5
131
  8
R2V
 62
     0
 10
1246.0
 20
87.0
 30
0.0
 70
    32
  0
VERTEX
  5
132
  8
R2V
 62
     0
 10
1246.0
 20
73.0
 30
0.0
 70
    32
  0
SEQEND
  5
133
  8
R2V
 62
     0
  0
POLYLINE
  5
134
  8
R2V
 62
     0
 66
     1
 10
0.0
 20
0.0
 30
0.0
 70
     8
  0
VERTEX
  5
135
  8
R2V
 62
     0
 10
1369.0
 20
87.0
 30
0.0
 70
    32
  0
VERTEX
  5
136
  8
R2V
 62
     0
 10
1369.0
 20
100.0
 30
0.0
 70
    32
  0
VERTEX
  5
137
  8
R2V
 62
     0
 10
1385.0
 20
100.0
 30
0.0
 70
    32
  0
VERTEX
  5
138
  8
R2V
 62
     0
 10
1390.0
 20
95.0
 30
0.0
 70
    32
  0
VERTEX
  5
139
  8
R2V
 62
     0
 10
1387.0
 20
88.0
 30
0.0
 70
    32
  0
VERTEX
  5
13A
  8
R2V
 62
     0
 10
1369.0
 20
87.0
 30
0.0
 70
    32
  0
VERTEX
  5
13B
  8
R2V
 62
     0
 10
1369.0
 20
73.0
 30
0.0
 70
    32
  0
VERTEX
  5
13C
  8
R2V
 62
     0
 10
1387.0
 20
74.0
 30
0.0
 70
    32
  0
VERTEX
  5
13D
  8
R2V
 62
     0
 10
1390.0
 20
77.0
 30
0.0
 70
    32
  0
VERTEX
  5
13E
  8
R2V
 62
     0
 10
1388.0
 20
85.0
 30
0.0
 70
    32
  0
VERTEX
  5
13F
  8
R2V
 62
     0
 10
1385.0
 20
87.0
 30
0.0
 70
    32
  0
SEQEND
  5
140
  8
R2V
 62
     0
  0
POLYLINE
  5
141
  8
R2V
 62
     0
 66
     1
 10
0.0
 20
0.0
 30
0.0
 70
     8
  0
VERTEX
  5
142
  8
R2V
 62
     0
 10
1572.0
 20
87.0
 30
0.0
 70
    32
  0
VERTEX
  5
143
  8
R2V
 62
     0
 10
1572.0
 20
100.0
 30
0.0
 70
    32
  0
VERTEX
  5
144
  8
R2V
 62
     0
 10
1588.0
 20
100.0
 30
0.0
 70
    32
  0
VERTEX
  5
145
  8
R2V
 62
     0
 10
1593.0
 20
95.0
 30
0.0
 70
    32
  0
VERTEX
  5
146
  8
R2V
 62
     0
 10
1590.0
 20
88.0
 30
0.0
 70
    32
  0
VERTEX
  5
147
  8
R2V
 62
     0
 10
1572.0
 20
87.0
 30
0.0
 70
    32
  0
VERTEX
  5
148
  8
R2V
 62
     0
 10
1572.0
 20
73.0
 30
0.0
 70
    32
  0
SEQEND
  5
149
  8
R2V
 62
     0
  0
POLYLINE
  5
14A
  8
R2V
 62
     0
 66
     1
 10
0.0
 20
0.0
 30
0.0
 70
     8
  0
VERTEX
  5
14B
  8
R2V
 62
     0
 10
1583.0
 20
87.0
 30
0.0
 70
    32
  0
VERTEX
  5
14C
  8
R2V
 62
     0
 10
1592.0
 20
74.0
 30
0.0
 70
    32
  0
SEQEND
  5
14D
  8
R2V
 62
     0
  0
POLYLINE
  5
14E
  8
R2V
 62
     0
 66
     1
 10
0.0
 20
0.0
 30
0.0
 70
     8
  0
VERTEX
  5
14F
  8
R2V
 62
     0
 10
1612.0
 20
88.0
 30
0.0
 70
    32
  0
VERTEX
  5
150
  8
R2V
 62
     0
 10
1626.0
 20
100.0
 30
0.0
 70
    32
  0
SEQEND
  5
151
  8
R2V
 62
     0
  0
POLYLINE
  5
152
  8
R2V
 62
     0
 66
     1
 10
0.0
 20
0.0
 30
0.0
 70
     8
  0
VERTEX
  5
153
  8
R2V
 62
     0
 10
1055.0
 20
97.0
 30
0.0
 70
    32
  0
VERTEX
  5
154
  8
R2V
 62
     0
 10
1055.0
 20
73.0
 30
0.0
 70
    32
  0
SEQEND
  5
155
  8
R2V
 62
     0
  0
POLYLINE
  5
156
  8
R2V
 62
     0
 66
     1
 10
0.0
 20
0.0
 30
0.0
 70
     8
  0
VERTEX
  5
157
  8
R2V
 62
     0
 10
1080.0
 20
97.0
 30
0.0
 70
    32
  0
VERTEX
  5
158
  8
R2V
 62
     0
 10
1080.0
 20
100.0
 30
0.0
 70
    32
  0
SEQEND
  5
159
  8
R2V
 62
     0
  0
POLYLINE
  5
15A
  8
R2V
 62
     0
 66
     1
 10
0.0
 20
0.0
 30
0.0
 70
     8
  0
VERTEX
  5
15B
  8
R2V
 62
     0
 10
1038.0
 20
100.0
 30
0.0
 70
    32
  0
VERTEX
  5
15C
  8
R2V
 62
     0
 10
1048.0
 20
100.0
 30
0.0
 70
    32
  0
SEQEND
  5
15D
  8
R2V
 62
     0
  0
POLYLINE
  5
15E
  8
R2V
 62
     0
 66
     1
 10
0.0
 20
0.0
 30
0.0
 70
     8
  0
VERTEX
  5
15F
  8
R2V
 62
     0
 10
1038.0
 20
100.0
 30
0.0
 70
    32
  0
VERTEX
  5
160
  8
R2V
 62
     0
 10
1038.0
 20
74.0
 30
0.0
 70
    32
  0
SEQEND
  5
161
  8
R2V
 62
     0
  0
POLYLINE
  5
162
  8
R2V
 62
     0
 66
     1
 10
0.0
 20
0.0
 30
0.0
 70
     8
  0
VERTEX
  5
163
  8
R2V
 62
     0
 10
1038.0
 20
100.0
 30
0.0
 70
    32
  0
VERTEX
  5
164
  8
R2V
 62
     0
 10
1027.0
 20
100.0
 30
0.0
 70
    32
  0
SEQEND
  5
165
  8
R2V
 62
     0
  0
POLYLINE
  5
166
  8
R2V
 62
     0
 66
     1
 10
0.0
 20
0.0
 30
0.0
 70
     8
  0
VERTEX
  5
167
  8
R2V
 62
     0
 10
1166.0
 20
100.0
 30
0.0
 70
    32
  0
VERTEX
  5
168
  8
R2V
 62
     0
 10
1175.0
 20
100.0
 30
0.0
 70
    32
  0
SEQEND
  5
169
  8
R2V
 62
     0
  0
POLYLINE
  5
16A
  8
R2V
 62
     0
 66
     1
 10
0.0
 20
0.0
 30
0.0
 70
     8
  0
VERTEX
  5
16B
  8
R2V
 62
     0
 10
1166.0
 20
100.0
 30
0.0
 70
    32
  0
VERTEX
  5
16C
  8
R2V
 62
     0
 10
1166.0
 20
74.0
 30
0.0
 70
    32
  0
SEQEND
  5
16D
  8
R2V
 62
     0
  0
POLYLINE
  5
16E
  8
R2V
 62
     0
 66
     1
 10
0.0
 20
0.0
 30
0.0
 70
     8
  0
VERTEX
  5
16F
  8
R2V
 62
     0
 10
1166.0
 20
100.0
 30
0.0
 70
    32
  0
VERTEX
  5
170
  8
R2V
 62
     0
 10
1155.0
 20
100.0
 30
0.0
 70
    32
  0
SEQEND
  5
171
  8
R2V
 62
     0
  0
POLYLINE
  5
172
  8
R2V
 62
     0
 66
     1
 10
0.0
 20
0.0
 30
0.0
 70
     8
  0
VERTEX
  5
173
  8
R2V
 62
     0
 10
1379.0
 20
114.0
 30
0.0
 70
    32
  0
VERTEX
  5
174
  8
R2V
 62
     0
 10
1379.0
 20
113.0
 30
0.0
 70
    32
  0
SEQEND
  5
175
  8
R2V
 62
     0
  0
POLYLINE
  5
176
  8
R2V
 62
     0
 66
     1
 10
0.0
 20
0.0
 30
0.0
 70
     8
  0
VERTEX
  5
177
  8
R2V
 62
     0
 10
1379.0
 20
114.0
 30
0.0
 70
    32
  0
VERTEX
  5
178
  8
R2V
 62
     0
 10
1392.0
 20
139.0
 30
0.0
 70
    32
  0
SEQEND
  5
179
  8
R2V
 62
     0
  0
POLYLINE
  5
17A
  8
R2V
 62
     0
 66
     1
 10
0.0
 20
0.0
 30
0.0
 70
     8
  0
VERTEX
  5
17B
  8
R2V
 62
     0
 10
1379.0
 20
114.0
 30
0.0
 70
    32
  0
VERTEX
  5
17C
  8
R2V
 62
     0
 10
1367.0
 20
140.0
 30
0.0
 70
    32
  0
SEQEND
  5
17D
  8
R2V
 62
     0
  0
POLYLINE
  5
17E
  8
R2V
 62
     0
 66
     1
 10
0.0
 20
0.0
 30
0.0
 70
     8
  0
VERTEX
  5
17F
  8
R2V
 62
     0
 10
932.0
 20
122.0
 30
0.0
 70
    32
  0
VERTEX
  5
180
  8
R2V
 62
     0
 10
940.0
 20
140.0
 30
0.0
 70
    32
  0
SEQEND
  5
181
  8
R2V
 62
     0
  0
POLYLINE
  5
182
  8
R2V
 62
     0
 66
     1
 10
0.0
 20
0.0
 30
0.0
 70
     8
  0
VERTEX
  5
183
  8
R2V
 62
     0
 10
932.0
 20
122.0
 30
0.0
 70
    32
  0
VERTEX
  5
184
  8
R2V
 62
     0
 10
946.0
 20
122.0
 30
0.0
 70
    32
  0
SEQEND
  5
185
  8
R2V
 62
     0
  0
POLYLINE
  5
186
  8
R2V
 62
     0
 66
     1
 10
0.0
 20
0.0
 30
0.0
 70
     8
  0
VERTEX
  5
187
  8
R2V
 62
     0
 10
932.0
 20
122.0
 30
0.0
 70
    32
  0
VERTEX
  5
188
  8
R2V
 62
     0
 10
927.0
 20
113.0
 30
0.0
 70
    32
  0
SEQEND
  5
189
  8
R2V
 62
     0
  0
POLYLINE
  5
18A
  8
R2V
 62
     0
 66
     1
 10
0.0
 20
0.0
 30
0.0
 70
     8
  0
VERTEX
  5
18B
  8
R2V
 62
     0
 10
1156.0
 20
122.0
 30
0.0
 70
    32
  0
VERTEX
  5
18C
  8
R2V
 62
     0
 10
1164.0
 20
140.0
 30
0.0
 70
    32
  0
SEQEND
  5
18D
  8
R2V
 62
     0
  0
POLYLINE
  5
18E
  8
R2V
 62
     0
 66
     1
 10
0.0
 20
0.0
 30
0.0
 70
     8
  0
VERTEX
  5
18F
  8
R2V
 62
     0
 10
1156.0
 20
122.0
 30
0.0
 70
    32
  0
VERTEX
  5
190
  8
R2V
 62
     0
 10
1172.0
 20
122.0
 30
0.0
 70
    32
  0
VERTEX
  5
191
  8
R2V
 62
     0
 10
1176.0
 20
114.0
 30
0.0
 70
    32
  0
SEQEND
  5
192
  8
R2V
 62
     0
  0
POLYLINE
  5
193
  8
R2V
 62
     0
 66
     1
 10
0.0
 20
0.0
 30
0.0
 70
     8
  0
VERTEX
  5
194
  8
R2V
 62
     0
 10
1156.0
 20
122.0
 30
0.0
 70
    32
  0
VERTEX
  5
195
  8
R2V
 62
     0
 10
1152.0
 20
113.0
 30
0.0
 70
    32
  0
SEQEND
  5
196
  8
R2V
 62
     0
  0
POLYLINE
  5
197
  8
R2V
 62
     0
 66
     1
 10
0.0
 20
0.0
 30
0.0
 70
     8
  0
VERTEX
  5
198
  8
R2V
 62
     0
 10
1172.0
 20
122.0
 30
0.0
 70
    32
  0
VERTEX
  5
199
  8
R2V
 62
     0
 10
1164.0
 20
139.0
 30
0.0
 70
    32
  0
SEQEND
  5
19A
  8
R2V
 62
     0
  0
POLYLINE
  5
19B
  8
R2V
 62
     0
 66
     1
 10
0.0
 20
0.0
 30
0.0
 70
     8
  0
VERTEX
  5
19C
  8
R2V
 62
     0
 10
1026.0
 20
126.0
 30
0.0
 70
    32
  0
VERTEX
  5
19D
  8
R2V
 62
     0
 10
1026.0
 20
140.0
 30
0.0
 70
    32
  0
VERTEX
  5
19E
  8
R2V
 62
     0
 10
1042.0
 20
140.0
 30
0.0
 70
    32
  0
VERTEX
  5
19F
  8
R2V
 62
     0
 10
1047.0
 20
136.0
 30
0.0
 70
    32
  0
VERTEX
  5
1A0
  8
R2V
 62
     0
 10
1045.0
 20
128.0
 30
0.0
 70
    32
  0
VERTEX
  5
1A1
  8
R2V
 62
     0
 10
1041.0
 20
126.0
 30
0.0
 70
    32
  0
VERTEX
  5
1A2
  8
R2V
 62
     0
 10
1026.0
 20
126.0
 30
0.0
 70
    32
  0
VERTEX
  5
1A3
  8
R2V
 62
     0
 10
1026.0
 20
113.0
 30
0.0
 70
    32
  0
SEQEND
  5
1A4
  8
R2V
 62
     0
  0
POLYLINE
  5
1A5
  8
R2V
 62
     0
 66
     1
 10
0.0
 20
0.0
 30
0.0
 70
     8
  0
VERTEX
  5
1A6
  8
R2V
 62
     0
 10
895.0
 20
127.0
 30
0.0
 70
    32
  0
VERTEX
  5
1A7
  8
R2V
 62
     0
 10
895.0
 20
140.0
 30
0.0
 70
    32
  0
VERTEX
  5
1A8
  8
R2V
 62
     0
 10
911.0
 20
140.0
 30
0.0
 70
    32
  0
VERTEX
  5
1A9
  8
R2V
 62
     0
 10
916.0
 20
136.0
 30
0.0
 70
    32
  0
VERTEX
  5
1AA
  8
R2V
 62
     0
 10
914.0
 20
130.0
 30
0.0
 70
    32
  0
VERTEX
  5
1AB
  8
R2V
 62
     0
 10
909.0
 20
127.0
 30
0.0
 70
    32
  0
VERTEX
  5
1AC
  8
R2V
 62
     0
 10
895.0
 20
127.0
 30
0.0
 70
    32
  0
VERTEX
  5
1AD
  8
R2V
 62
     0
 10
895.0
 20
113.0
 30
0.0
 70
    32
  0
SEQEND
  5
1AE
  8
R2V
 62
     0
  0
POLYLINE
  5
1AF
  8
R2V
 62
     0
 66
     1
 10
0.0
 20
0.0
 30
0.0
 70
     8
  0
VERTEX
  5
1B0
  8
R2V
 62
     0
 10
907.0
 20
127.0
 30
0.0
 70
    32
  0
VERTEX
  5
1B1
  8
R2V
 62
     0
 10
915.0
 20
114.0
 30
0.0
 70
    32
  0
SEQEND
  5
1B2
  8
R2V
 62
     0
  0
POLYLINE
  5
1B3
  8
R2V
 62
     0
 66
     1
 10
0.0
 20
0.0
 30
0.0
 70
     8
  0
VERTEX
  5
1B4
  8
R2V
 62
     0
 10
1092.0
 20
127.0
 30
0.0
 70
    32
  0
VERTEX
  5
1B5
  8
R2V
 62
     0
 10
1092.0
 20
140.0
 30
0.0
 70
    32
  0
VERTEX
  5
1B6
  8
R2V
 62
     0
 10
1108.0
 20
140.0
 30
0.0
 70
    32
  0
VERTEX
  5
1B7
  8
R2V
 62
     0
 10
1113.0
 20
136.0
 30
0.0
 70
    32
  0
VERTEX
  5
1B8
  8
R2V
 62
     0
 10
1111.0
 20
130.0
 30
0.0
 70
    32
  0
VERTEX
  5
1B9
  8
R2V
 62
     0
 10
1106.0
 20
127.0
 30
0.0
 70
    32
  0
VERTEX
  5
1BA
  8
R2V
 62
     0
 10
1092.0
 20
127.0
 30
0.0
 70
    32
  0
VERTEX
  5
1BB
  8
R2V
 62
     0
 10
1092.0
 20
113.0
 30
0.0
 70
    32
  0
SEQEND
  5
1BC
  8
R2V
 62
     0
  0
POLYLINE
  5
1BD
  8
R2V
 62
     0
 66
     1
 10
0.0
 20
0.0
 30
0.0
 70
     8
  0
VERTEX
  5
1BE
  8
R2V
 62
     0
 10
1104.0
 20
127.0
 30
0.0
 70
    32
  0
VERTEX
  5
1BF
  8
R2V
 62
     0
 10
1112.0
 20
114.0
 30
0.0
 70
    32
  0
SEQEND
  5
1C0
  8
R2V
 62
     0
  0
POLYLINE
  5
1C1
  8
R2V
 62
     0
 66
     1
 10
0.0
 20
0.0
 30
0.0
 70
     8
  0
VERTEX
  5
1C2
  8
R2V
 62
     0
 10
662.0
 20
134.0
 30
0.0
 70
    32
  0
VERTEX
  5
1C3
  8
R2V
 62
     0
 10
674.0
 20
160.0
 30
0.0
 70
    32
  0
VERTEX
  5
1C4
  8
R2V
 62
     0
 10
683.0
 20
152.0
 30
0.0
 70
    32
  0
VERTEX
  5
1C5
  8
R2V
 62
     0
 10
685.0
 20
152.0
 30
0.0
 70
    32
  0
VERTEX
  5
1C6
  8
R2V
 62
     0
 10
691.0
 20
149.0
 30
0.0
 70
    32
  0
VERTEX
  5
1C7
  8
R2V
 62
     0
 10
707.0
 20
150.0
 30
0.0
 70
    32
  0
VERTEX
  5
1C8
  8
R2V
 62
     0
 10
723.0
 20
159.0
 30
0.0
 70
    32
  0
VERTEX
  5
1C9
  8
R2V
 62
     0
 10
734.0
 20
151.0
 30
0.0
 70
    32
  0
VERTEX
  5
1CA
  8
R2V
 62
     0
 10
735.0
 20
151.0
 30
0.0
 70
    32
  0
VERTEX
  5
1CB
  8
R2V
 62
     0
 10
739.0
 20
149.0
 30
0.0
 70
    32
  0
VERTEX
  5
1CC
  8
R2V
 62
     0
 10
755.0
 20
150.0
 30
0.0
 70
    32
  0
VERTEX
  5
1CD
  8
R2V
 62
     0
 10
767.0
 20
158.0
 30
0.0
 70
    32
  0
VERTEX
  5
1CE
  8
R2V
 62
     0
 10
770.0
 20
158.0
 30
0.0
 70
    32
  0
VERTEX
  5
1CF
  8
R2V
 62
     0
 10
782.0
 20
132.0
 30
0.0
 70
    32
  0
VERTEX
  5
1D0
  8
R2V
 62
     0
 10
784.0
 20
104.0
 30
0.0
 70
    32
  0
VERTEX
  5
1D1
  8
R2V
 62
     0
 10
776.0
 20
82.0
 30
0.0
 70
    32
  0
VERTEX
  5
1D2
  8
R2V
 62
     0
 10
760.0
 20
59.0
 30
0.0
 70
    32
  0
VERTEX
  5
1D3
  8
R2V
 62
     0
 10
738.0
 20
43.0
 30
0.0
 70
    32
  0
VERTEX
  5
1D4
  8
R2V
 62
     0
 10
723.0
 20
36.0
 30
0.0
 70
    32
  0
SEQEND
  5
1D5
  8
R2V
 62
     0
  0
POLYLINE
  5
1D6
  8
R2V
 62
     0
 66
     1
 10
0.0
 20
0.0
 30
0.0
 70
     8
  0
VERTEX
  5
1D7
  8
R2V
 62
     0
 10
662.0
 20
134.0
 30
0.0
 70
    32
  0
VERTEX
  5
1D8
  8
R2V
 62
     0
 10
779.0
 20
134.0
 30
0.0
 70
    32
  0
SEQEND
  5
1D9
  8
R2V
 62
     0
  0
POLYLINE
  5
1DA
  8
R2V
 62
     0
 66
     1
 10
0.0
 20
0.0
 30
0.0
 70
     8
  0
VERTEX
  5
1DB
  8
R2V
 62
     0
 10
662.0
 20
134.0
 30
0.0
 70
    32
  0
VERTEX
  5
1DC
  8
R2V
 62
     0
 10
659.0
 20
124.0
 30
0.0
 70
    32
  0
VERTEX
  5
1DD
  8
R2V
 62
     0
 10
660.0
 20
100.0
 30
0.0
 70
    32
  0
VERTEX
  5
1DE
  8
R2V
 62
     0
 10
670.0
 20
76.0
 30
0.0
 70
    32
  0
VERTEX
  5
1DF
  8
R2V
 62
     0
 10
687.0
 20
56.0
 30
0.0
 70
    32
  0
VERTEX
  5
1E0
  8
R2V
 62
     0
 10
710.0
 20
41.0
 30
0.0
 70
    32
  0
VERTEX
  5
1E1
  8
R2V
 62
     0
 10
711.0
 20
41.0
 30
0.0
 70
    32
  0
VERTEX
  5
1E2
  8
R2V
 62
     0
 10
721.0
 20
36.0
 30
0.0
 70
    32
  0
SEQEND
  5
1E3
  8
R2V
 62
     0
  0
POLYLINE
  5
1E4
  8
R2V
 62
     0
 66
     1
 10
0.0
 20
0.0
 30
0.0
 70
     8
  0
VERTEX
  5
1E5
  8
R2V
 62
     0
 10
940.0
 20
139.0
 30
0.0
 70
    32
  0
VERTEX
  5
1E6
  8
R2V
 62
     0
 10
952.0
 20
114.0
 30
0.0
 70
    32
  0
SEQEND
  5
1E7
  8
R2V
 62
     0
  0
POLYLINE
  5
1E8
  8
R2V
 62
     0
 66
     1
 10
0.0
 20
0.0
 30
0.0
 70
     8
  0
VERTEX
  5
1E9
  8
R2V
 62
     0
 10
878.0
 20
140.0
 30
0.0
 70
    32
  0
VERTEX
  5
1EA
  8
R2V
 62
     0
 10
888.0
 20
140.0
 30
0.0
 70
    32
  0
SEQEND
  5
1EB
  8
R2V
 62
     0
  0
POLYLINE
  5
1EC
  8
R2V
 62
     0
 66
     1
 10
0.0
 20
0.0
 30
0.0
 70
     8
  0
VERTEX
  5
1ED
  8
R2V
 62
     0
 10
878.0
 20
140.0
 30
0.0
 70
    32
  0
VERTEX
  5
1EE
  8
R2V
 62
     0
 10
878.0
 20
114.0
 30
0.0
 70
    32
  0
SEQEND
  5
1EF
  8
R2V
 62
     0
  0
POLYLINE
  5
1F0
  8
R2V
 62
     0
 66
     1
 10
0.0
 20
0.0
 30
0.0
 70
     8
  0
VERTEX
  5
1F1
  8
R2V
 62
     0
 10
878.0
 20
140.0
 30
0.0
 70
    32
  0
VERTEX
  5
1F2
  8
R2V
 62
     0
 10
867.0
 20
140.0
 30
0.0
 70
    32
  0
SEQEND
  5
1F3
  8
R2V
 62
     0
  0
POLYLINE
  5
1F4
  8
R2V
 62
     0
 66
     1
 10
0.0
 20
0.0
 30
0.0
 70
     8
  0
VERTEX
  5
1F5
  8
R2V
 62
     0
 10
1135.0
 20
140.0
 30
0.0
 70
    32
  0
VERTEX
  5
1F6
  8
R2V
 62
     0
 10
1145.0
 20
140.0
 30
0.0
 70
    32
  0
SEQEND
  5
1F7
  8
R2V
 62
     0
  0
POLYLINE
  5
1F8
  8
R2V
 62
     0
 66
     1
 10
0.0
 20
0.0
 30
0.0
 70
     8
  0
VERTEX
  5
1F9
  8
R2V
 62
     0
 10
1135.0
 20
140.0
 30
0.0
 70
    32
  0
VERTEX
  5
1FA
  8
R2V
 62
     0
 10
1135.0
 20
114.0
 30
0.0
 70
    32
  0
SEQEND
  5
1FB
  8
R2V
 62
     0
  0
POLYLINE
  5
1FC
  8
R2V
 62
     0
 66
     1
 10
0.0
 20
0.0
 30
0.0
 70
     8
  0
VERTEX
  5
1FD
  8
R2V
 62
     0
 10
1135.0
 20
140.0
 30
0.0
 70
    32
  0
VERTEX
  5
1FE
  8
R2V
 62
     0
 10
1124.0
 20
140.0
 30
0.0
 70
    32
  0
SEQEND
  5
1FF
  8
R2V
 62
     0
  0
POLYLINE
  5
200
  8
R2V
 62
     0
 66
     1
 10
0.0
 20
0.0
 30
0.0
 70
     8
  0
VERTEX
  5
201
  8
R2V
 62
     0
 10
1196.0
 20
140.0
 30
0.0
 70
    32
  0
VERTEX
  5
202
  8
R2V
 62
     0
 10
1206.0
 20
140.0
 30
0.0
 70
    32
  0
SEQEND
  5
203
  8
R2V
 62
     0
  0
POLYLINE
  5
204
  8
R2V
 62
     0
 66
     1
 10
0.0
 20
0.0
 30
0.0
 70
     8
  0
VERTEX
  5
205
  8
R2V
 62
     0
 10
1196.0
 20
140.0
 30
0.0
 70
    32
  0
VERTEX
  5
206
  8
R2V
 62
     0
 10
1196.0
 20
114.0
 30
0.0
 70
    32
  0
SEQEND
  5
207
  8
R2V
 62
     0
  0
POLYLINE
  5
208
  8
R2V
 62
     0
 66
     1
 10
0.0
 20
0.0
 30
0.0
 70
     8
  0
VERTEX
  5
209
  8
R2V
 62
     0
 10
1196.0
 20
140.0
 30
0.0
 70
    32
  0
VERTEX
  5
20A
  8
R2V
 62
     0
 10
1186.0
 20
140.0
 30
0.0
 70
    32
  0
SEQEND
  5
20B
  8
R2V
 62
     0
  0
POLYLINE
  5
20C
  8
R2V
 62
     0
 66
     1
 10
0.0
 20
0.0
 30
0.0
 70
     8
  0
VERTEX
  5
20D
  8
R2V
 62
     0
 10
603.0
 20
173.0
 30
0.0
 70
    32
  0
VERTEX
  5
20E
  8
R2V
 62
     0
 10
603.0
 20
172.0
 30
0.0
 70
    32
  0
SEQEND
  5
20F
  8
R2V
 62
     0
  0
POLYLINE
  5
210
  8
R2V
 62
     0
 66
     1
 10
0.0
 20
0.0
 30
0.0
 70
     8
  0
VERTEX
  5
211
  8
R2V
 62
     0
 10
603.0
 20
173.0
 30
0.0
 70
    32
  0
VERTEX
  5
212
  8
R2V
 62
     0
 10
615.0
 20
202.0
 30
0.0
 70
    32
  0
VERTEX
  5
213
  8
R2V
 62
     0
 10
609.0
 20
202.0
 30
0.0
 70
    32
  0
VERTEX
  5
214
  8
R2V
 62
     0
 10
609.0
 20
256.0
 30
0.0
 70
    32
  0
VERTEX
  5
215
  8
R2V
 62
     0
 10
597.0
 20
256.0
 30
0.0
 70
    32
  0
VERTEX
  5
216
  8
R2V
 62
     0
 10
597.0
 20
202.0
 30
0.0
 70
    32
  0
VERTEX
  5
217
  8
R2V
 62
     0
 10
591.0
 20
201.0
 30
0.0
 70
    32
  0
VERTEX
  5
218
  8
R2V
 62
     0
 10
603.0
 20
173.0
 30
0.0
 70
    32
  0
SEQEND
  5
219
  8
R2V
 62
     0
  0
POLYLINE
  5
21A
  8
R2V
 62
     0
 66
     1
 10
0.0
 20
0.0
 30
0.0
 70
     8
  0
VERTEX
  5
21B
  8
R2V
 62
     0
 10
1440.0
 20
319.0
 30
0.0
 70
    32
  0
VERTEX
  5
21C
  8
R2V
 62
     0
 10
1444.0
 20
430.0
 30
0.0
 70
    32
  0
VERTEX
  5
21D
  8
R2V
 62
     0
 10
1446.0
 20
430.0
 30
0.0
 70
    32
  0
VERTEX
  5
21E
  8
R2V
 62
     0
 10
1478.0
 20
406.0
 30
0.0
 70
    32
  0
VERTEX
  5
21F
  8
R2V
 62
     0
 10
1441.0
 20
319.0
 30
0.0
 70
    32
  0
VERTEX
  5
220
  8
R2V
 62
     0
 10
1440.0
 20
316.0
 30
0.0
 70
    32
  0
SEQEND
  5
221
  8
R2V
 62
     0
  0
POLYLINE
  5
222
  8
R2V
 62
     0
 66
     1
 10
0.0
 20
0.0
 30
0.0
 70
     8
  0
VERTEX
  5
223
  8
R2V
 62
     0
 10
781.0
 20
361.0
 30
0.0
 70
    32
  0
VERTEX
  5
224
  8
R2V
 62
     0
 10
779.0
 20
401.0
 30
0.0
 70
    32
  0
VERTEX
  5
225
  8
R2V
 62
     0
 10
763.0
 20
462.0
 30
0.0
 70
    32
  0
VERTEX
  5
226
  8
R2V
 62
     0
 10
749.0
 20
492.0
 30
0.0
 70
    32
  0
VERTEX
  5
227
  8
R2V
 62
     0
 10
751.0
 20
492.0
 30
0.0
 70
    32
  0
VERTEX
  5
228
  8
R2V
 62
     0
 10
789.0
 20
459.0
 30
0.0
 70
    32
  0
VERTEX
  5
229
  8
R2V
 62
     0
 10
790.0
 20
459.0
 30
0.0
 70
    32
  0
VERTEX
  5
22A
  8
R2V
 62
     0
 10
804.0
 20
452.0
 30
0.0
 70
    32
  0
VERTEX
  5
22B
  8
R2V
 62
     0
 10
808.0
 20
452.0
 30
0.0
 70
    32
  0
VERTEX
  5
22C
  8
R2V
 62
     0
 10
870.0
 20
447.0
 30
0.0
 70
    32
  0
SEQEND
  5
22D
  8
R2V
 62
     0
  0
POLYLINE
  5
22E
  8
R2V
 62
     0
 66
     1
 10
0.0
 20
0.0
 30
0.0
 70
     8
  0
VERTEX
  5
22F
  8
R2V
 62
     0
 10
781.0
 20
361.0
 30
0.0
 70
    32
  0
VERTEX
  5
230
  8
R2V
 62
     0
 10
799.0
 20
392.0
 30
0.0
 70
    32
  0
VERTEX
  5
231
  8
R2V
 62
     0
 10
818.0
 20
409.0
 30
0.0
 70
    32
  0
VERTEX
  5
232
  8
R2V
 62
     0
 10
837.0
 20
415.0
 30
0.0
 70
    32
  0
VERTEX
  5
233
  8
R2V
 62
     0
 10
873.0
 20
419.0
 30
0.0
 70
    32
  0
SEQEND
  5
234
  8
R2V
 62
     0
  0
POLYLINE
  5
235
  8
R2V
 62
     0
 66
     1
 10
0.0
 20
0.0
 30
0.0
 70
     8
  0
VERTEX
  5
236
  8
R2V
 62
     0
 10
781.0
 20
361.0
 30
0.0
 70
    32
  0
VERTEX
  5
237
  8
R2V
 62
     0
 10
778.0
 20
322.0
 30
0.0
 70
    32
  0
VERTEX
  5
238
  8
R2V
 62
     0
 10
757.0
 20
164.0
 30
0.0
 70
    32
  0
SEQEND
  5
239
  8
R2V
 62
     0
  0
POLYLINE
  5
23A
  8
R2V
 62
     0
 66
     1
 10
0.0
 20
0.0
 30
0.0
 70
     8
  0
VERTEX
  5
23B
  8
R2V
 62
     0
 10
577.0
 20
456.0
 30
0.0
 70
    32
  0
VERTEX
  5
23C
  8
R2V
 62
     0
 10
577.0
 20
494.0
 30
0.0
 70
    32
  0
VERTEX
  5
23D
  8
R2V
 62
     0
 10
585.0
 20
517.0
 30
0.0
 70
    32
  0
VERTEX
  5
23E
  8
R2V
 62
     0
 10
582.0
 20
615.0
 30
0.0
 70
    32
  0
VERTEX
  5
23F
  8
R2V
 62
     0
 10
419.0
 20
716.0
 30
0.0
 70
    32
  0
VERTEX
  5
240
  8
R2V
 62
     0
 10
318.0
 20
550.0
 30
0.0
 70
    32
  0
VERTEX
  5
241
  8
R2V
 62
     0
 10
426.0
 20
481.0
 30
0.0
 70
    32
  0
VERTEX
  5
242
  8
R2V
 62
     0
 10
561.0
 20
485.0
 30
0.0
 70
    32
  0
VERTEX
  5
243
  8
R2V
 62
     0
 10
575.0
 20
488.0
 30
0.0
 70
    32
  0
VERTEX
  5
244
  8
R2V
 62
     0
 10
576.0
 20
489.0
 30
0.0
 70
    32
  0
SEQEND
  5
245
  8
R2V
 62
     0
  0
POLYLINE
  5
246
  8
R2V
 62
     0
 66
     1
 10
0.0
 20
0.0
 30
0.0
 70
     8
  0
VERTEX
  5
247
  8
R2V
 62
     0
 10
577.0
 20
456.0
 30
0.0
 70
    32
  0
VERTEX
  5
248
  8
R2V
 62
     0
 10
585.0
 20
456.0
 30
0.0
 70
    32
  0
VERTEX
  5
249
  8
R2V
 62
     0
 10
613.0
 20
435.0
 30
0.0
 70
    32
  0
VERTEX
  5
24A
  8
R2V
 62
     0
 10
635.0
 20
406.0
 30
0.0
 70
    32
  0
VERTEX
  5
24B
  8
R2V
 62
     0
 10
646.0
 20
378.0
 30
0.0
 70
    32
  0
VERTEX
  5
24C
  8
R2V
 62
     0
 10
649.0
 20
362.0
 30
0.0
 70
    32
  0
VERTEX
  5
24D
  8
R2V
 62
     0
 10
649.0
 20
56.0
 30
0.0
 70
    32
  0
SEQEND
  5
24E
  8
R2V
 62
     0
  0
POLYLINE
  5
24F
  8
R2V
 62
     0
 66
     1
 10
0.0
 20
0.0
 30
0.0
 70
     8
  0
VERTEX
  5
250
  8
R2V
 62
     0
 10
577.0
 20
456.0
 30
0.0
 70
    32
  0
VERTEX
  5
251
  8
R2V
 62
     0
 10
578.0
 20
429.0
 30
0.0
 70
    32
  0
VERTEX
  5
252
  8
R2V
 62
     0
 10
600.0
 20
413.0
 30
0.0
 70
    32
  0
VERTEX
  5
253
  8
R2V
 62
     0
 10
616.0
 20
394.0
 30
0.0
 70
    32
  0
VERTEX
  5
254
  8
R2V
 62
     0
 10
620.0
 20
197.0
 30
0.0
 70
    32
  0
VERTEX
  5
255
  8
R2V
 62
     0
 10
618.0
 20
59.0
 30
0.0
 70
    32
  0
SEQEND
  5
256
  8
R2V
 62
     0
  0
POLYLINE
  5
257
  8
R2V
 62
     0
 66
     1
 10
0.0
 20
0.0
 30
0.0
 70
     8
  0
VERTEX
  5
258
  8
R2V
 62
     0
 10
585.0
 20
456.0
 30
0.0
 70
    32
  0
VERTEX
  5
259
  8
R2V
 62
     0
 10
590.0
 20
461.0
 30
0.0
 70
    32
  0
VERTEX
  5
25A
  8
R2V
 62
     0
 10
596.0
 20
464.0
 30
0.0
 70
    32
  0
VERTEX
  5
25B
  8
R2V
 62
     0
 10
613.0
 20
480.0
 30
0.0
 70
    32
  0
VERTEX
  5
25C
  8
R2V
 62
     0
 10
618.0
 20
493.0
 30
0.0
 70
    32
  0
VERTEX
  5
25D
  8
R2V
 62
     0
 10
613.0
 20
593.0
 30
0.0
 70
    32
  0
VERTEX
  5
25E
  8
R2V
 62
     0
 10
614.0
 20
642.0
 30
0.0
 70
    32
  0
VERTEX
  5
25F
  8
R2V
 62
     0
 10
618.0
 20
642.0
 30
0.0
 70
    32
  0
SEQEND
  5
260
  8
R2V
 62
     0
  0
POLYLINE
  5
261
  8
R2V
 62
     0
 66
     1
 10
0.0
 20
0.0
 30
0.0
 70
     8
  0
VERTEX
  5
262
  8
R2V
 62
     0
 10
585.0
 20
456.0
 30
0.0
 70
    32
  0
VERTEX
  5
263
  8
R2V
 62
     0
 10
585.0
 20
455.0
 30
0.0
 70
    32
  0
SEQEND
  5
264
  8
R2V
 62
     0
  0
POLYLINE
  5
265
  8
R2V
 62
     0
 66
     1
 10
0.0
 20
0.0
 30
0.0
 70
     8
  0
VERTEX
  5
266
  8
R2V
 62
     0
 10
778.0
 20
486.0
 30
0.0
 70
    32
  0
VERTEX
  5
267
  8
R2V
 62
     0
 10
793.0
 20
528.0
 30
0.0
 70
    32
  0
VERTEX
  5
268
  8
R2V
 62
     0
 10
817.0
 20
568.0
 30
0.0
 70
    32
  0
VERTEX
  5
269
  8
R2V
 62
     0
 10
858.0
 20
613.0
 30
0.0
 70
    32
  0
VERTEX
  5
26A
  8
R2V
 62
     0
 10
967.0
 20
718.0
 30
0.0
 70
    32
  0
VERTEX
  5
26B
  8
R2V
 62
     0
 10
772.0
 20
833.0
 30
0.0
 70
    32
  0
VERTEX
  5
26C
  8
R2V
 62
     0
 10
768.0
 20
826.0
 30
0.0
 70
    32
  0
SEQEND
  5
26D
  8
R2V
 62
     0
  0
POLYLINE
  5
26E
  8
R2V
 62
     0
 66
     1
 10
0.0
 20
0.0
 30
0.0
 70
     8
  0
VERTEX
  5
26F
  8
R2V
 62
     0
 10
778.0
 20
486.0
 30
0.0
 70
    32
  0
VERTEX
  5
270
  8
R2V
 62
     0
 10
790.0
 20
470.0
 30
0.0
 70
    32
  0
VERTEX
  5
271
  8
R2V
 62
     0
 10
805.0
 20
471.0
 30
0.0
 70
    32
  0
SEQEND
  5
272
  8
R2V
 62
     0
  0
POLYLINE
  5
273
  8
R2V
 62
     0
 66
     1
 10
0.0
 20
0.0
 30
0.0
 70
     8
  0
VERTEX
  5
274
  8
R2V
 62
     0
 10
778.0
 20
486.0
 30
0.0
 70
    32
  0
VERTEX
  5
275
  8
R2V
 62
     0
 10
751.0
 20
521.0
 30
0.0
 70
    32
  0
VERTEX
  5
276
  8
R2V
 62
     0
 10
764.0
 20
638.0
 30
0.0
 70
    32
  0
VERTEX
  5
277
  8
R2V
 62
     0
 10
761.0
 20
735.0
 30
0.0
 70
    32
  0
VERTEX
  5
278
  8
R2V
 62
     0
 10
757.0
 20
809.0
 30
0.0
 70
    32
  0
VERTEX
  5
279
  8
R2V
 62
     0
 10
767.0
 20
824.0
 30
0.0
 70
    32
  0
SEQEND
  5
27A
  8
R2V
 62
     0
  0
POLYLINE
  5
27B
  8
R2V
 62
     0
 66
     1
 10
0.0
 20
0.0
 30
0.0
 70
     8
  0
VERTEX
  5
27C
  8
R2V
 62
     0
 10
749.0
 20
492.0
 30
0.0
 70
    32
  0
VERTEX
  5
27D
  8
R2V
 62
     0
 10
723.0
 20
530.0
 30
0.0
 70
    32
  0
VERTEX
  5
27E
  8
R2V
 62
     0
 10
690.0
 20
566.0
 30
0.0
 70
    32
  0
VERTEX
  5
27F
  8
R2V
 62
     0
 10
628.0
 20
621.0
 30
0.0
 70
    32
  0
VERTEX
  5
280
  8
R2V
 62
     0
 10
616.0
 20
637.0
 30
0.0
 70
    32
  0
VERTEX
  5
281
  8
R2V
 62
     0
 10
613.0
 20
640.0
 30
0.0
 70
    32
  0
SEQEND
  5
282
  8
R2V
 62
     0
  0
POLYLINE
  5
283
  8
R2V
 62
     0
 66
     1
 10
0.0
 20
0.0
 30
0.0
 70
     8
  0
VERTEX
  5
284
  8
R2V
 62
     0
 10
1332.0
 20
514.0
 30
0.0
 70
    32
  0
VERTEX
  5
285
  8
R2V
 62
     0
 10
1296.0
 20
520.0
 30
0.0
 70
    32
  0
VERTEX
  5
286
  8
R2V
 62
     0
 10
1298.0
 20
527.0
 30
0.0
 70
    32
  0
VERTEX
  5
287
  8
R2V
 62
     0
 10
1239.0
 20
561.0
 30
0.0
 70
    32
  0
VERTEX
  5
288
  8
R2V
 62
     0
 10
1247.0
 20
575.0
 30
0.0
 70
    32
  0
VERTEX
  5
289
  8
R2V
 62
     0
 10
1306.0
 20
539.0
 30
0.0
 70
    32
  0
VERTEX
  5
28A
  8
R2V
 62
     0
 10
1310.0
 20
546.0
 30
0.0
 70
    32
  0
VERTEX
  5
28B
  8
R2V
 62
     0
 10
1333.0
 20
515.0
 30
0.0
 70
    32
  0
VERTEX
  5
28C
  8
R2V
 62
     0
 10
1334.0
 20
514.0
 30
0.0
 70
    32
  0
VERTEX
  5
28D
  8
R2V
 62
     0
 10
1333.0
 20
515.0
 30
0.0
 70
    32
  0
SEQEND
  5
28E
  8
R2V
 62
     0
  0
POLYLINE
  5
28F
  8
R2V
 62
     0
 66
     1
 10
0.0
 20
0.0
 30
0.0
 70
     8
  0
VERTEX
  5
290
  8
R2V
 62
     0
 10
751.0
 20
523.0
 30
0.0
 70
    32
  0
VERTEX
  5
291
  8
R2V
 62
     0
 10
730.0
 20
550.0
 30
0.0
 70
    32
  0
VERTEX
  5
292
  8
R2V
 62
     0
 10
736.0
 20
569.0
 30
0.0
 70
    32
  0
SEQEND
  5
293
  8
R2V
 62
     0
  0
POLYLINE
  5
294
  8
R2V
 62
     0
 66
     1
 10
0.0
 20
0.0
 30
0.0
 70
     8
  0
VERTEX
  5
295
  8
R2V
 62
     0
 10
171.0
 20
636.0
 30
0.0
 70
    32
  0
VERTEX
  5
296
  8
R2V
 62
     0
 10
102.0
 20
677.0
 30
0.0
 70
    32
  0
VERTEX
  5
297
  8
R2V
 62
     0
 10
202.0
 20
847.0
 30
0.0
 70
    32
  0
VERTEX
  5
298
  8
R2V
 62
     0
 10
372.0
 20
747.0
 30
0.0
 70
    32
  0
VERTEX
  5
299
  8
R2V
 62
     0
 10
272.0
 20
577.0
 30
0.0
 70
    32
  0
VERTEX
  5
29A
  8
R2V
 62
     0
 10
171.0
 20
636.0
 30
0.0
 70
    32
  0
VERTEX
  5
29B
  8
R2V
 62
     0
 10
139.0
 20
580.0
 30
0.0
 70
    32
  0
VERTEX
  5
29C
  8
R2V
 62
     0
 10
242.0
 20
513.0
 30
0.0
 70
    32
  0
VERTEX
  5
29D
  8
R2V
 62
     0
 10
208.0
 20
453.0
 30
0.0
 70
    32
  0
VERTEX
  5
29E
  8
R2V
 62
     0
 10
198.0
 20
425.0
 30
0.0
 70
    32
  0
VERTEX
  5
29F
  8
R2V
 62
     0
 10
194.0
 20
400.0
 30
0.0
 70
    32
  0
VERTEX
  5
2A0
  8
R2V
 62
     0
 10
188.0
 20
384.0
 30
0.0
 70
    32
  0
VERTEX
  5
2A1
  8
R2V
 62
     0
 10
188.0
 20
59.0
 30
0.0
 70
    32
  0
SEQEND
  5
2A2
  8
R2V
 62
     0
  0
POLYLINE
  5
2A3
  8
R2V
 62
     0
 66
     1
 10
0.0
 20
0.0
 30
0.0
 70
     8
  0
VERTEX
  5
2A4
  8
R2V
 62
     0
 10
139.0
 20
740.0
 30
0.0
 70
    32
  0
VERTEX
  5
2A5
  8
R2V
 62
     0
 10
86.0
 20
777.0
 30
0.0
 70
    32
  0
VERTEX
  5
2A6
  8
R2V
 62
     0
 10
143.0
 20
871.0
 30
0.0
 70
    32
  0
SEQEND
  5
2A7
  8
R2V
 62
     0
  0
POLYLINE
  5
2A8
  8
R2V
 62
     0
 66
     1
 10
0.0
 20
0.0
 30
0.0
 70
     8
  0
VERTEX
  5
2A9
  8
R2V
 62
     0
 10
131.0
 20
788.0
 30
0.0
 70
    32
  0
VERTEX
  5
2AA
  8
R2V
 62
     0
 10
162.0
 20
812.0
 30
0.0
 70
    32
  0
VERTEX
  5
2AB
  8
R2V
 62
     0
 10
157.0
 20
817.0
 30
0.0
 70
    32
  0
VERTEX
  5
2AC
  8
R2V
 62
     0
 10
191.0
 20
875.0
 30
0.0
 70
    32
  0
VERTEX
  5
2AD
  8
R2V
 62
     0
 10
176.0
 20
882.0
 30
0.0
 70
    32
  0
VERTEX
  5
2AE
  8
R2V
 62
     0
 10
142.0
 20
823.0
 30
0.0
 70
    32
  0
VERTEX
  5
2AF
  8
R2V
 62
     0
 10
136.0
 20
826.0
 30
0.0
 70
    32
  0
VERTEX
  5
2B0
  8
R2V
 62
     0
 10
130.0
 20
787.0
 30
0.0
 70
    32
  0
VERTEX
  5
2B1
  8
R2V
 62
     0
 10
130.0
 20
789.0
 30
0.0
 70
    32
  0
SEQEND
  5
2B2
  8
R2V
 62
     0
  0
POLYLINE
  5
2B3
  8
R2V
 62
     0
 66
     1
 10
0.0
 20
0.0
 30
0.0
 70
     8
  0
VERTEX
  5
2B4
  8
R2V
 62
     0
 10
757.0
 20
807.0
 30
0.0
 70
    32
  0
VERTEX
  5
2B5
  8
R2V
 62
     0
 10
737.0
 20
778.0
 30
0.0
 70
    32
  0
VERTEX
  5
2B6
  8
R2V
 62
     0
 10
700.0
 20
705.0
 30
0.0
 70
    32
  0
VERTEX
  5
2B7
  8
R2V
 62
     0
 10
680.0
 20
672.0
 30
0.0
 70
    32
  0
VERTEX
  5
2B8
  8
R2V
 62
     0
 10
661.0
 20
654.0
 30
0.0
 70
    32
  0
VERTEX
  5
2B9
  8
R2V
 62
     0
 10
628.0
 20
644.0
 30
0.0
 70
    32
  0
SEQEND
  5
2BA
  8
R2V
 62
     0
  0
POLYLINE
  5
2BB
  8
R2V
 62
     0
 66
     1
 10
0.0
 20
0.0
 30
0.0
 70
     8
  0
VERTEX
  5
2BC
  8
R2V
 62
     0
 10
788.0
 20
911.0
 30
0.0
 70
    32
  0
VERTEX
  5
2BD
  8
R2V
 62
     0
 10
819.0
 20
934.0
 30
0.0
 70
    32
  0
VERTEX
  5
2BE
  8
R2V
 62
     0
 10
812.0
 20
938.0
 30
0.0
 70
    32
  0
VERTEX
  5
2BF
  8
R2V
 62
     0
 10
847.0
 20
997.0
 30
0.0
 70
    32
  0
VERTEX
  5
2C0
  8
R2V
 62
     0
 10
833.0
 20
1004.0
 30
0.0
 70
    32
  0
VERTEX
  5
2C1
  8
R2V
 62
     0
 10
799.0
 20
946.0
 30
0.0
 70
    32
  0
VERTEX
  5
2C2
  8
R2V
 62
     0
 10
793.0
 20
949.0
 30
0.0
 70
    32
  0
VERTEX
  5
2C3
  8
R2V
 62
     0
 10
787.0
 20
910.0
 30
0.0
 70
    32
  0
VERTEX
  5
2C4
  8
R2V
 62
     0
 10
787.0
 20
912.0
 30
0.0
 70
    32
  0
SEQEND
  5
2C5
  8
R2V
 62
     0
  0
POLYLINE
  5
2C6
  8
R2V
 62
     0
 66
     1
 10
0.0
 20
0.0
 30
0.0
 70
     8
  0
VERTEX
  5
2C7
  8
R2V
 62
     0
 10
101.0
 20
979.0
 30
0.0
 70
    32
  0
VERTEX
  5
2C8
  8
R2V
 62
     0
 10
102.0
 20
979.0
 30
0.0
 70
    32
  0
VERTEX
  5
2C9
  8
R2V
 62
     0
 10
182.0
 20
931.0
 30
0.0
 70
    32
  0
VERTEX
  5
2CA
  8
R2V
 62
     0
 10
230.0
 20
1011.0
 30
0.0
 70
    32
  0
VERTEX
  5
2CB
  8
R2V
 62
     0
 10
231.0
 20
1011.0
 30
0.0
 70
    32
  0
VERTEX
  5
2CC
  8
R2V
 62
     0
 10
279.0
 20
981.0
 30
0.0
 70
    32
  0
VERTEX
  5
2CD
  8
R2V
 62
     0
 10
230.0
 20
899.0
 30
0.0
 70
    32
  0
VERTEX
  5
2CE
  8
R2V
 62
     0
 10
400.0
 20
799.0
 30
0.0
 70
    32
  0
VERTEX
  5
2CF
  8
R2V
 62
     0
 10
501.0
 20
969.0
 30
0.0
 70
    32
  0
VERTEX
  5
2D0
  8
R2V
 62
     0
 10
331.0
 20
1069.0
 30
0.0
 70
    32
  0
VERTEX
  5
2D1
  8
R2V
 62
     0
 10
279.0
 20
982.0
 30
0.0
 70
    32
  0
SEQEND
  5
2D2
  8
R2V
 62
     0
  0
POLYLINE
  5
2D3
  8
R2V
 62
     0
 66
     1
 10
0.0
 20
0.0
 30
0.0
 70
     8
  0
VERTEX
  5
2D4
  8
R2V
 62
     0
 10
101.0
 20
979.0
 30
0.0
 70
    32
  0
VERTEX
  5
2D5
  8
R2V
 62
     0
 10
68.0
 20
918.0
 30
0.0
 70
    32
  0
SEQEND
  5
2D6
  8
R2V
 62
     0
  0
POLYLINE
  5
2D7
  8
R2V
 62
     0
 66
     1
 10
0.0
 20
0.0
 30
0.0
 70
     8
  0
VERTEX
  5
2D8
  8
R2V
 62
     0
 10
101.0
 20
979.0
 30
0.0
 70
    32
  0
VERTEX
  5
2D9
  8
R2V
 62
     0
 10
153.0
 20
1074.0
 30
0.0
 70
    32
  0
SEQEND
  5
2DA
  8
R2V
 62
     0
  0
POLYLINE
  5
2DB
  8
R2V
 62
     0
 66
     1
 10
0.0
 20
0.0
 30
0.0
 70
     8
  0
VERTEX
  5
2DC
  8
R2V
 62
     0
 10
101.0
 20
979.0
 30
0.0
 70
    32
  0
VERTEX
  5
2DD
  8
R2V
 62
     0
 10
12.0
 20
1032.0
 30
0.0
 70
    32
  0
VERTEX
  5
2DE
  8
R2V
 62
     0
 10
113.0
 20
1202.0
 30
0.0
 70
    32
  0
VERTEX
  5
2DF
  8
R2V
 62
     0
 10
283.0
 20
1101.0
 30
0.0
 70
    32
  0
VERTEX
  5
2E0
  8
R2V
 62
     0
 10
229.0
 20
1012.0
 30
0.0
 70
    32
  0
VERTEX
  5
2E1
  8
R2V
 62
     0
 10
150.0
 20
1060.0
 30
0.0
 70
    32
  0
SEQEND
  5
2E2
  8
R2V
 62
     0
  0
POLYLINE
  5
2E3
  8
R2V
 62
     0
 66
     1
 10
0.0
 20
0.0
 30
0.0
 70
     8
  0
VERTEX
  5
2E4
  8
R2V
 62
     0
 10
102.0
 20
979.0
 30
0.0
 70
    32
  0
VERTEX
  5
2E5
  8
R2V
 62
     0
 10
101.0
 20
979.0
 30
0.0
 70
    32
  0
SEQEND
  5
2E6
  8
R2V
 62
     0
  0
POLYLINE
  5
2E7
  8
R2V
 62
     0
 66
     1
 10
0.0
 20
0.0
 30
0.0
 70
     8
  0
VERTEX
  5
2E8
  8
R2V
 62
     0
 10
279.0
 20
981.0
 30
0.0
 70
    32
  0
VERTEX
  5
2E9
  8
R2V
 62
     0
 10
281.0
 20
981.0
 30
0.0
 70
    32
  0
VERTEX
  5
2EA
  8
R2V
 62
     0
 10
298.0
 20
971.0
 30
0.0
 70
    32
  0
SEQEND
  5
2EB
  8
R2V
 62
     0
  0
POLYLINE
  5
2EC
  8
R2V
 62
     0
 66
     1
 10
0.0
 20
0.0
 30
0.0
 70
     8
  0
VERTEX
  5
2ED
  8
R2V
 62
     0
 10
197.0
 20
1152.0
 30
0.0
 70
    32
  0
VERTEX
  5
2EE
  8
R2V
 62
     0
 10
224.0
 20
1201.0
 30
0.0
 70
    32
  0
VERTEX
  5
2EF
  8
R2V
 62
     0
 10
226.0
 20
1201.0
 30
0.0
 70
    32
  0
VERTEX
  5
2F0
  8
R2V
 62
     0
 10
309.0
 20
1152.0
 30
0.0
 70
    32
  0
VERTEX
  5
2F1
  8
R2V
 62
     0
 10
409.0
 20
1322.0
 30
0.0
 70
    32
  0
VERTEX
  5
2F2
  8
R2V
 62
     0
 10
306.0
 20
1382.0
 30
0.0
 70
    32
  0
SEQEND
  5
2F3
  8
R2V
 62
     0
  0
POLYLINE
  5
2F4
  8
R2V
 62
     0
 66
     1
 10
0.0
 20
0.0
 30
0.0
 70
     8
  0
VERTEX
  5
2F5
  8
R2V
 62
     0
 10
197.0
 20
1152.0
 30
0.0
 70
    32
  0
VERTEX
  5
2F6
  8
R2V
 62
     0
 10
178.0
 20
1117.0
 30
0.0
 70
    32
  0
SEQEND
  5
2F7
  8
R2V
 62
     0
  0
POLYLINE
  5
2F8
  8
R2V
 62
     0
 66
     1
 10
0.0
 20
0.0
 30
0.0
 70
     8
  0
VERTEX
  5
2F9
  8
R2V
 62
     0
 10
2107.0
 20
1189.0
 30
0.0
 70
    32
  0
VERTEX
  5
2FA
  8
R2V
 62
     0
 10
2108.0
 20
1189.0
 30
0.0
 70
    32
  0
SEQEND
  5
2FB
  8
R2V
 62
     0
  0
POLYLINE
  5
2FC
  8
R2V
 62
     0
 66
     1
 10
0.0
 20
0.0
 30
0.0
 70
     8
  0
VERTEX
  5
2FD
  8
R2V
 62
     0
 10
2107.0
 20
1189.0
 30
0.0
 70
    32
  0
VERTEX
  5
2FE
  8
R2V
 62
     0
 10
2078.0
 20
1177.0
 30
0.0
 70
    32
  0
VERTEX
  5
2FF
  8
R2V
 62
     0
 10
2078.0
 20
1183.0
 30
0.0
 70
    32
  0
VERTEX
  5
300
  8
R2V
 62
     0
 10
2025.0
 20
1183.0
 30
0.0
 70
    32
  0
VERTEX
  5
301
  8
R2V
 62
     0
 10
2025.0
 20
1195.0
 30
0.0
 70
    32
  0
VERTEX
  5
302
  8
R2V
 62
     0
 10
2078.0
 20
1195.0
 30
0.0
 70
    32
  0
VERTEX
  5
303
  8
R2V
 62
     0
 10
2079.0
 20
1201.0
 30
0.0
 70
    32
  0
VERTEX
  5
304
  8
R2V
 62
     0
 10
2107.0
 20
1189.0
 30
0.0
 70
    32
  0
SEQEND
  5
305
  8
R2V
 62
     0
  0
POLYLINE
  5
306
  8
R2V
 62
     0
 66
     1
 10
0.0
 20
0.0
 30
0.0
 70
     8
  0
VERTEX
  5
307
  8
R2V
 62
     0
 10
224.0
 20
1201.0
 30
0.0
 70
    32
  0
VERTEX
  5
308
  8
R2V
 62
     0
 10
235.0
 20
1224.0
 30
0.0
 70
    32
  0
VERTEX
  5
309
  8
R2V
 62
     0
 10
242.0
 20
1267.0
 30
0.0
 70
    32
  0
SEQEND
  5
30A
  8
R2V
 62
     0
  0
POLYLINE
  5
30B
  8
R2V
 62
     0
 66
     1
 10
0.0
 20
0.0
 30
0.0
 70
     8
  0
VERTEX
  5
30C
  8
R2V
 62
     0
 10
224.0
 20
1202.0
 30
0.0
 70
    32
  0
VERTEX
  5
30D
  8
R2V
 62
     0
 10
139.0
 20
1252.0
 30
0.0
 70
    32
  0
VERTEX
  5
30E
  8
R2V
 62
     0
 10
207.0
 20
1368.0
 30
0.0
 70
    32
  0
SEQEND
  5
30F
  8
R2V
 62
     0
  0
POLYLINE
  5
310
  8
R2V
 62
     0
 66
     1
 10
0.0
 20
0.0
 30
0.0
 70
     8
  0
VERTEX
  5
311
  8
R2V
 62
     0
 10
1873.0
 20
1251.0
 30
0.0
 70
    32
  0
VERTEX
  5
312
  8
R2V
 62
     0
 10
1912.0
 20
1317.0
 30
0.0
 70
    32
  0
VERTEX
  5
313
  8
R2V
 62
     0
 10
2036.0
 20
1244.0
 30
0.0
 70
    32
  0
SEQEND
  5
314
  8
R2V
 62
     0
  0
POLYLINE
  5
315
  8
R2V
 62
     0
 66
     1
 10
0.0
 20
0.0
 30
0.0
 70
     8
  0
VERTEX
  5
316
  8
R2V
 62
     0
 10
1873.0
 20
1251.0
 30
0.0
 70
    32
  0
VERTEX
  5
317
  8
R2V
 62
     0
 10
1874.0
 20
1251.0
 30
0.0
 70
    32
  0
VERTEX
  5
318
  8
R2V
 62
     0
 10
1916.0
 20
1227.0
 30
0.0
 70
    32
  0
SEQEND
  5
319
  8
R2V
 62
     0
  0
POLYLINE
  5
31A
  8
R2V
 62
     0
 66
     1
 10
0.0
 20
0.0
 30
0.0
 70
     8
  0
VERTEX
  5
31B
  8
R2V
 62
     0
 10
1873.0
 20
1251.0
 30
0.0
 70
    32
  0
VERTEX
  5
31C
  8
R2V
 62
     0
 10
1811.0
 20
1147.0
 30
0.0
 70
    32
  0
VERTEX
  5
31D
  8
R2V
 62
     0
 10
1982.0
 20
1047.0
 30
0.0
 70
    32
  0
VERTEX
  5
31E
  8
R2V
 62
     0
 10
2020.0
 20
1112.0
 30
0.0
 70
    32
  0
SEQEND
  5
31F
  8
R2V
 62
     0
  0
POLYLINE
  5
320
  8
R2V
 62
     0
 66
     1
 10
0.0
 20
0.0
 30
0.0
 70
     8
  0
VERTEX
  5
321
  8
R2V
 62
     0
 10
1873.0
 20
1251.0
 30
0.0
 70
    32
  0
VERTEX
  5
322
  8
R2V
 62
     0
 10
1817.0
 20
1283.0
 30
0.0
 70
    32
  0
VERTEX
  5
323
  8
R2V
 62
     0
 10
1854.0
 20
1349.0
 30
0.0
 70
    32
  0
VERTEX
  5
324
  8
R2V
 62
     0
 10
1776.0
 20
1393.0
 30
0.0
 70
    32
  0
SEQEND
  5
325
  8
R2V
 62
     0
  0
POLYLINE
  5
326
  8
R2V
 62
     0
 66
     1
 10
0.0
 20
0.0
 30
0.0
 70
     8
  0
VERTEX
  5
327
  8
R2V
 62
     0
 10
1873.0
 20
1252.0
 30
0.0
 70
    32
  0
VERTEX
  5
328
  8
R2V
 62
     0
 10
1873.0
 20
1251.0
 30
0.0
 70
    32
  0
SEQEND
  5
329
  8
R2V
 62
     0
  0
POLYLINE
  5
32A
  8
R2V
 62
     0
 66
     1
 10
0.0
 20
0.0
 30
0.0
 70
     8
  0
VERTEX
  5
32B
  8
R2V
 62
     0
 10
1048.0
 20
1444.0
 30
0.0
 70
    32
  0
VERTEX
  5
32C
  8
R2V
 62
     0
 10
1048.0
 20
1443.0
 30
0.0
 70
    32
  0
SEQEND
  5
32D
  8
R2V
 62
     0
  0
POLYLINE
  5
32E
  8
R2V
 62
     0
 66
     1
 10
0.0
 20
0.0
 30
0.0
 70
     8
  0
VERTEX
  5
32F
  8
R2V
 62
     0
 10
1048.0
 20
1444.0
 30
0.0
 70
    32
  0
VERTEX
  5
330
  8
R2V
 62
     0
 10
1082.0
 20
1516.0
 30
0.0
 70
    32
  0
SEQEND
  5
331
  8
R2V
 62
     0
  0
POLYLINE
  5
332
  8
R2V
 62
     0
 66
     1
 10
0.0
 20
0.0
 30
0.0
 70
     8
  0
VERTEX
  5
333
  8
R2V
 62
     0
 10
1048.0
 20
1444.0
 30
0.0
 70
    32
  0
VERTEX
  5
334
  8
R2V
 62
     0
 10
1014.0
 20
1517.0
 30
0.0
 70
    32
  0
SEQEND
  5
335
  8
R2V
 62
     0
  0
POLYLINE
  5
336
  8
R2V
 62
     0
 66
     1
 10
0.0
 20
0.0
 30
0.0
 70
     8
  0
VERTEX
  5
337
  8
R2V
 62
     0
 10
416.0
 20
1452.0
 30
0.0
 70
    32
  0
VERTEX
  5
338
  8
R2V
 62
     0
 10
416.0
 20
1492.0
 30
0.0
 70
    32
  0
SEQEND
  5
339
  8
R2V
 62
     0
  0
POLYLINE
  5
33A
  8
R2V
 62
     0
 66
     1
 10
0.0
 20
0.0
 30
0.0
 70
     8
  0
VERTEX
  5
33B
  8
R2V
 62
     0
 10
416.0
 20
1452.0
 30
0.0
 70
    32
  0
VERTEX
  5
33C
  8
R2V
 62
     0
 10
416.0
 20
1444.0
 30
0.0
 70
    32
  0
SEQEND
  5
33D
  8
R2V
 62
     0
  0
POLYLINE
  5
33E
  8
R2V
 62
     0
 66
     1
 10
0.0
 20
0.0
 30
0.0
 70
     8
  0
VERTEX
  5
33F
  8
R2V
 62
     0
 10
416.0
 20
1452.0
 30
0.0
 70
    32
  0
VERTEX
  5
340
  8
R2V
 62
     0
 10
400.0
 20
1443.0
 30
0.0
 70
    32
  0
VERTEX
  5
341
  8
R2V
 62
     0
 10
382.0
 20
1444.0
 30
0.0
 70
    32
  0
VERTEX
  5
342
  8
R2V
 62
     0
 10
369.0
 20
1454.0
 30
0.0
 70
    32
  0
VERTEX
  5
343
  8
R2V
 62
     0
 10
364.0
 20
1463.0
 30
0.0
 70
    32
  0
VERTEX
  5
344
  8
R2V
 62
     0
 10
366.0
 20
1476.0
 30
0.0
 70
    32
  0
VERTEX
  5
345
  8
R2V
 62
     0
 10
375.0
 20
1487.0
 30
0.0
 70
    32
  0
VERTEX
  5
346
  8
R2V
 62
     0
 10
385.0
 20
1492.0
 30
0.0
 70
    32
  0
VERTEX
  5
347
  8
R2V
 62
     0
 10
400.0
 20
1492.0
 30
0.0
 70
    32
  0
VERTEX
  5
348
  8
R2V
 62
     0
 10
416.0
 20
1483.0
 30
0.0
 70
    32
  0
SEQEND
  5
349
  8
R2V
 62
     0
  0
POLYLINE
  5
34A
  8
R2V
 62
     0
 66
     1
 10
0.0
 20
0.0
 30
0.0
 70
     8
  0
VERTEX
  5
34B
  8
R2V
 62
     0
 10
1736.0
 20
1452.0
 30
0.0
 70
    32
  0
VERTEX
  5
34C
  8
R2V
 62
     0
 10
1736.0
 20
1492.0
 30
0.0
 70
    32
  0
SEQEND
  5
34D
  8
R2V
 62
     0
  0
POLYLINE
  5
34E
  8
R2V
 62
     0
 66
     1
 10
0.0
 20
0.0
 30
0.0
 70
     8
  0
VERTEX
  5
34F
  8
R2V
 62
     0
 10
1736.0
 20
1452.0
 30
0.0
 70
    32
  0
VERTEX
  5
350
  8
R2V
 62
     0
 10
1736.0
 20
1444.0
 30
0.0
 70
    32
  0
SEQEND
  5
351
  8
R2V
 62
     0
  0
POLYLINE
  5
352
  8
R2V
 62
     0
 66
     1
 10
0.0
 20
0.0
 30
0.0
 70
     8
  0
VERTEX
  5
353
  8
R2V
 62
     0
 10
1736.0
 20
1452.0
 30
0.0
 70
    32
  0
VERTEX
  5
354
  8
R2V
 62
     0
 10
1720.0
 20
1443.0
 30
0.0
 70
    32
  0
VERTEX
  5
355
  8
R2V
 62
     0
 10
1703.0
 20
1444.0
 30
0.0
 70
    32
  0
VERTEX
  5
356
  8
R2V
 62
     0
 10
1689.0
 20
1454.0
 30
0.0
 70
    32
  0
VERTEX
  5
357
  8
R2V
 62
     0
 10
1685.0
 20
1463.0
 30
0.0
 70
    32
  0
VERTEX
  5
358
  8
R2V
 62
     0
 10
1687.0
 20
1477.0
 30
0.0
 70
    32
  0
VERTEX
  5
359
  8
R2V
 62
     0
 10
1694.0
 20
1486.0
 30
0.0
 70
    32
  0
VERTEX
  5
35A
  8
R2V
 62
     0
 10
1705.0
 20
1492.0
 30
0.0
 70
    32
  0
VERTEX
  5
35B
  8
R2V
 62
     0
 10
1720.0
 20
1492.0
 30
0.0
 70
    32
  0
VERTEX
  5
35C
  8
R2V
 62
     0
 10
1736.0
 20
1483.0
 30
0.0
 70
    32
  0
SEQEND
  5
35D
  8
R2V
 62
     0
  0
POLYLINE
  5
35E
  8
R2V
 62
     0
 66
     1
 10
0.0
 20
0.0
 30
0.0
 70
     8
  0
VERTEX
  5
35F
  8
R2V
 62
     0
 10
1894.0
 20
1452.0
 30
0.0
 70
    32
  0
VERTEX
  5
360
  8
R2V
 62
     0
 10
1894.0
 20
1492.0
 30
0.0
 70
    32
  0
SEQEND
  5
361
  8
R2V
 62
     0
  0
POLYLINE
  5
362
  8
R2V
 62
     0
 66
     1
 10
0.0
 20
0.0
 30
0.0
 70
     8
  0
VERTEX
  5
363
  8
R2V
 62
     0
 10
1894.0
 20
1452.0
 30
0.0
 70
    32
  0
VERTEX
  5
364
  8
R2V
 62
     0
 10
1895.0
 20
1452.0
 30
0.0
 70
    32
  0
VERTEX
  5
365
  8
R2V
 62
     0
 10
1910.0
 20
1443.0
 30
0.0
 70
    32
  0
VERTEX
  5
366
  8
R2V
 62
     0
 10
1928.0
 20
1444.0
 30
0.0
 70
    32
  0
VERTEX
  5
367
  8
R2V
 62
     0
 10
1941.0
 20
1454.0
 30
0.0
 70
    32
  0
VERTEX
  5
368
  8
R2V
 62
     0
 10
1945.0
 20
1463.0
 30
0.0
 70
    32
  0
VERTEX
  5
369
  8
R2V
 62
     0
 10
1943.0
 20
1477.0
 30
0.0
 70
    32
  0
VERTEX
  5
36A
  8
R2V
 62
     0
 10
1936.0
 20
1486.0
 30
0.0
 70
    32
  0
VERTEX
  5
36B
  8
R2V
 62
     0
 10
1925.0
 20
1492.0
 30
0.0
 70
    32
  0
VERTEX
  5
36C
  8
R2V
 62
     0
 10
1907.0
 20
1491.0
 30
0.0
 70
    32
  0
VERTEX
  5
36D
  8
R2V
 62
     0
 10
1894.0
 20
1483.0
 30
0.0
 70
    32
  0
SEQEND
  5
36E
  8
R2V
 62
     0
  0
POLYLINE
  5
36F
  8
R2V
 62
     0
 66
     1
 10
0.0
 20
0.0
 30
0.0
 70
     8
  0
VERTEX
  5
370
  8
R2V
 62
     0
 10
1894.0
 20
1452.0
 30
0.0
 70
    32
  0
VERTEX
  5
371
  8
R2V
 62
     0
 10
1894.0
 20
1419.0
 30
0.0
 70
    32
  0
SEQEND
  5
372
  8
R2V
 62
     0
  0
POLYLINE
  5
373
  8
R2V
 62
     0
 66
     1
 10
0.0
 20
0.0
 30
0.0
 70
     8
  0
VERTEX
  5
374
  8
R2V
 62
     0
 10
578.0
 20
1471.0
 30
0.0
 70
    32
  0
VERTEX
  5
375
  8
R2V
 62
     0
 10
584.0
 20
1484.0
 30
0.0
 70
    32
  0
VERTEX
  5
376
  8
R2V
 62
     0
 10
598.0
 20
1492.0
 30
0.0
 70
    32
  0
VERTEX
  5
377
  8
R2V
 62
     0
 10
613.0
 20
1492.0
 30
0.0
 70
    32
  0
VERTEX
  5
378
  8
R2V
 62
     0
 10
625.0
 20
1485.0
 30
0.0
 70
    32
  0
VERTEX
  5
379
  8
R2V
 62
     0
 10
629.0
 20
1478.0
 30
0.0
 70
    32
  0
VERTEX
  5
37A
  8
R2V
 62
     0
 10
629.0
 20
1471.0
 30
0.0
 70
    32
  0
VERTEX
  5
37B
  8
R2V
 62
     0
 10
578.0
 20
1471.0
 30
0.0
 70
    32
  0
VERTEX
  5
37C
  8
R2V
 62
     0
 10
580.0
 20
1458.0
 30
0.0
 70
    32
  0
VERTEX
  5
37D
  8
R2V
 62
     0
 10
587.0
 20
1449.0
 30
0.0
 70
    32
  0
VERTEX
  5
37E
  8
R2V
 62
     0
 10
598.0
 20
1443.0
 30
0.0
 70
    32
  0
VERTEX
  5
37F
  8
R2V
 62
     0
 10
616.0
 20
1444.0
 30
0.0
 70
    32
  0
VERTEX
  5
380
  8
R2V
 62
     0
 10
628.0
 20
1452.0
 30
0.0
 70
    32
  0
SEQEND
  5
381
  8
R2V
 62
     0
  0
POLYLINE
  5
382
  8
R2V
 62
     0
 66
     1
 10
0.0
 20
0.0
 30
0.0
 70
     8
  0
VERTEX
  5
383
  8
R2V
 62
     0
 10
1099.0
 20
1471.0
 30
0.0
 70
    32
  0
VERTEX
  5
384
  8
R2V
 62
     0
 10
1108.0
 20
1486.0
 30
0.0
 70
    32
  0
VERTEX
  5
385
  8
R2V
 62
     0
 10
1120.0
 20
1492.0
 30
0.0
 70
    32
  0
VERTEX
  5
386
  8
R2V
 62
     0
 10
1135.0
 20
1492.0
 30
0.0
 70
    32
  0
VERTEX
  5
387
  8
R2V
 62
     0
 10
1147.0
 20
1484.0
 30
0.0
 70
    32
  0
VERTEX
  5
388
  8
R2V
 62
     0
 10
1151.0
 20
1478.0
 30
0.0
 70
    32
  0
VERTEX
  5
389
  8
R2V
 62
     0
 10
1151.0
 20
1471.0
 30
0.0
 70
    32
  0
VERTEX
  5
38A
  8
R2V
 62
     0
 10
1099.0
 20
1471.0
 30
0.0
 70
    32
  0
VERTEX
  5
38B
  8
R2V
 62
     0
 10
1101.0
 20
1459.0
 30
0.0
 70
    32
  0
VERTEX
  5
38C
  8
R2V
 62
     0
 10
1110.0
 20
1448.0
 30
0.0
 70
    32
  0
VERTEX
  5
38D
  8
R2V
 62
     0
 10
1120.0
 20
1443.0
 30
0.0
 70
    32
  0
VERTEX
  5
38E
  8
R2V
 62
     0
 10
1137.0
 20
1444.0
 30
0.0
 70
    32
  0
VERTEX
  5
38F
  8
R2V
 62
     0
 10
1150.0
 20
1452.0
 30
0.0
 70
    32
  0
SEQEND
  5
390
  8
R2V
 62
     0
  0
POLYLINE
  5
391
  8
R2V
 62
     0
 66
     1
 10
0.0
 20
0.0
 30
0.0
 70
     8
  0
VERTEX
  5
392
  8
R2V
 62
     0
 10
2009.0
 20
1471.0
 30
0.0
 70
    32
  0
VERTEX
  5
393
  8
R2V
 62
     0
 10
2018.0
 20
1486.0
 30
0.0
 70
    32
  0
VERTEX
  5
394
  8
R2V
 62
     0
 10
2030.0
 20
1492.0
 30
0.0
 70
    32
  0
VERTEX
  5
395
  8
R2V
 62
     0
 10
2045.0
 20
1492.0
 30
0.0
 70
    32
  0
VERTEX
  5
396
  8
R2V
 62
     0
 10
2057.0
 20
1484.0
 30
0.0
 70
    32
  0
VERTEX
  5
397
  8
R2V
 62
     0
 10
2061.0
 20
1478.0
 30
0.0
 70
    32
  0
VERTEX
  5
398
  8
R2V
 62
     0
 10
2061.0
 20
1471.0
 30
0.0
 70
    32
  0
VERTEX
  5
399
  8
R2V
 62
     0
 10
2009.0
 20
1471.0
 30
0.0
 70
    32
  0
VERTEX
  5
39A
  8
R2V
 62
     0
 10
2011.0
 20
1459.0
 30
0.0
 70
    32
  0
VERTEX
  5
39B
  8
R2V
 62
     0
 10
2020.0
 20
1448.0
 30
0.0
 70
    32
  0
VERTEX
  5
39C
  8
R2V
 62
     0
 10
2030.0
 20
1443.0
 30
0.0
 70
    32
  0
VERTEX
  5
39D
  8
R2V
 62
     0
 10
2047.0
 20
1444.0
 30
0.0
 70
    32
  0
VERTEX
  5
39E
  8
R2V
 62
     0
 10
2060.0
 20
1452.0
 30
0.0
 70
    32
  0
SEQEND
  5
39F
  8
R2V
 62
     0
  0
POLYLINE
  5
3A0
  8
R2V
 62
     0
 66
     1
 10
0.0
 20
0.0
 30
0.0
 70
     8
  0
VERTEX
  5
3A1
  8
R2V
 62
     0
 10
655.0
 20
1475.0
 30
0.0
 70
    32
  0
VERTEX
  5
3A2
  8
R2V
 62
     0
 10
655.0
 20
1491.0
 30
0.0
 70
    32
  0
SEQEND
  5
3A3
  8
R2V
 62
     0
  0
POLYLINE
  5
3A4
  8
R2V
 62
     0
 66
     1
 10
0.0
 20
0.0
 30
0.0
 70
     8
  0
VERTEX
  5
3A5
  8
R2V
 62
     0
 10
655.0
 20
1475.0
 30
0.0
 70
    32
  0
VERTEX
  5
3A6
  8
R2V
 62
     0
 10
665.0
 20
1487.0
 30
0.0
 70
    32
  0
VERTEX
  5
3A7
  8
R2V
 62
     0
 10
675.0
 20
1492.0
 30
0.0
 70
    32
  0
VERTEX
  5
3A8
  8
R2V
 62
     0
 10
688.0
 20
1492.0
 30
0.0
 70
    32
  0
SEQEND
  5
3A9
  8
R2V
 62
     0
  0
POLYLINE
  5
3AA
  8
R2V
 62
     0
 66
     1
 10
0.0
 20
0.0
 30
0.0
 70
     8
  0
VERTEX
  5
3AB
  8
R2V
 62
     0
 10
655.0
 20
1475.0
 30
0.0
 70
    32
  0
VERTEX
  5
3AC
  8
R2V
 62
     0
 10
655.0
 20
1443.0
 30
0.0
 70
    32
  0
SEQEND
  5
3AD
  8
R2V
 62
     0
  0
POLYLINE
  5
3AE
  8
R2V
 62
     0
 66
     1
 10
0.0
 20
0.0
 30
0.0
 70
     8
  0
VERTEX
  5
3AF
  8
R2V
 62
     0
 10
1394.0
 20
1475.0
 30
0.0
 70
    32
  0
VERTEX
  5
3B0
  8
R2V
 62
     0
 10
1394.0
 20
1491.0
 30
0.0
 70
    32
  0
SEQEND
  5
3B1
  8
R2V
 62
     0
  0
POLYLINE
  5
3B2
  8
R2V
 62
     0
 66
     1
 10
0.0
 20
0.0
 30
0.0
 70
     8
  0
VERTEX
  5
3B3
  8
R2V
 62
     0
 10
1394.0
 20
1475.0
 30
0.0
 70
    32
  0
VERTEX
  5
3B4
  8
R2V
 62
     0
 10
1404.0
 20
1487.0
 30
0.0
 70
    32
  0
VERTEX
  5
3B5
  8
R2V
 62
     0
 10
1415.0
 20
1492.0
 30
0.0
 70
    32
  0
VERTEX
  5
3B6
  8
R2V
 62
     0
 10
1427.0
 20
1492.0
 30
0.0
 70
    32
  0
SEQEND
  5
3B7
  8
R2V
 62
     0
  0
POLYLINE
  5
3B8
  8
R2V
 62
     0
 66
     1
 10
0.0
 20
0.0
 30
0.0
 70
     8
  0
VERTEX
  5
3B9
  8
R2V
 62
     0
 10
1394.0
 20
1475.0
 30
0.0
 70
    32
  0
VERTEX
  5
3BA
  8
R2V
 62
     0
 10
1394.0
 20
1443.0
 30
0.0
 70
    32
  0
SEQEND
  5
3BB
  8
R2V
 62
     0
  0
POLYLINE
  5
3BC
  8
R2V
 62
     0
 66
     1
 10
0.0
 20
0.0
 30
0.0
 70
     8
  0
VERTEX
  5
3BD
  8
R2V
 62
     0
 10
1766.0
 20
1479.0
 30
0.0
 70
    32
  0
VERTEX
  5
3BE
  8
R2V
 62
     0
 10
1766.0
 20
1491.0
 30
0.0
 70
    32
  0
SEQEND
  5
3BF
  8
R2V
 62
     0
  0
POLYLINE
  5
3C0
  8
R2V
 62
     0
 66
     1
 10
0.0
 20
0.0
 30
0.0
 70
     8
  0
VERTEX
  5
3C1
  8
R2V
 62
     0
 10
1766.0
 20
1479.0
 30
0.0
 70
    32
  0
VERTEX
  5
3C2
  8
R2V
 62
     0
 10
1783.0
 20
1491.0
 30
0.0
 70
    32
  0
VERTEX
  5
3C3
  8
R2V
 62
     0
 10
1804.0
 20
1491.0
 30
0.0
 70
    32
  0
VERTEX
  5
3C4
  8
R2V
 62
     0
 10
1810.0
 20
1487.0
 30
0.0
 70
    32
  0
VERTEX
  5
3C5
  8
R2V
 62
     0
 10
1813.0
 20
1479.0
 30
0.0
 70
    32
  0
VERTEX
  5
3C6
  8
R2V
 62
     0
 10
1813.0
 20
1444.0
 30
0.0
 70
    32
  0
SEQEND
  5
3C7
  8
R2V
 62
     0
  0
POLYLINE
  5
3C8
  8
R2V
 62
     0
 66
     1
 10
0.0
 20
0.0
 30
0.0
 70
     8
  0
VERTEX
  5
3C9
  8
R2V
 62
     0
 10
1766.0
 20
1479.0
 30
0.0
 70
    32
  0
VERTEX
  5
3CA
  8
R2V
 62
     0
 10
1766.0
 20
1443.0
 30
0.0
 70
    32
  0
SEQEND
  5
3CB
  8
R2V
 62
     0
  0
POLYLINE
  5
3CC
  8
R2V
 62
     0
 66
     1
 10
0.0
 20
0.0
 30
0.0
 70
     8
  0
VERTEX
  5
3CD
  8
R2V
 62
     0
 10
1813.0
 20
1479.0
 30
0.0
 70
    32
  0
VERTEX
  5
3CE
  8
R2V
 62
     0
 10
1830.0
 20
1491.0
 30
0.0
 70
    32
  0
VERTEX
  5
3CF
  8
R2V
 62
     0
 10
1851.0
 20
1491.0
 30
0.0
 70
    32
  0
VERTEX
  5
3D0
  8
R2V
 62
     0
 10
1857.0
 20
1487.0
 30
0.0
 70
    32
  0
VERTEX
  5
3D1
  8
R2V
 62
     0
 10
1860.0
 20
1479.0
 30
0.0
 70
    32
  0
VERTEX
  5
3D2
  8
R2V
 62
     0
 10
1860.0
 20
1444.0
 30
0.0
 70
    32
  0
SEQEND
  5
3D3
  8
R2V
 62
     0
  0
POLYLINE
  5
3D4
  8
R2V
 62
     0
 66
     1
 10
0.0
 20
0.0
 30
0.0
 70
     8
  0
VERTEX
  5
3D5
  8
R2V
 62
     0
 10
275.0
 20
1482.0
 30
0.0
 70
    32
  0
VERTEX
  5
3D6
  8
R2V
 62
     0
 10
275.0
 20
1517.0
 30
0.0
 70
    32
  0
VERTEX
  5
3D7
  8
R2V
 62
     0
 10
315.0
 20
1517.0
 30
0.0
 70
    32
  0
VERTEX
  5
3D8
  8
R2V
 62
     0
 10
328.0
 20
1512.0
 30
0.0
 70
    32
  0
VERTEX
  5
3D9
  8
R2V
 62
     0
 10
335.0
 20
1503.0
 30
0.0
 70
    32
  0
VERTEX
  5
3DA
  8
R2V
 62
     0
 10
333.0
 20
1493.0
 30
0.0
 70
    32
  0
VERTEX
  5
3DB
  8
R2V
 62
     0
 10
323.0
 20
1484.0
 30
0.0
 70
    32
  0
VERTEX
  5
3DC
  8
R2V
 62
     0
 10
315.0
 20
1482.0
 30
0.0
 70
    32
  0
VERTEX
  5
3DD
  8
R2V
 62
     0
 10
275.0
 20
1482.0
 30
0.0
 70
    32
  0
VERTEX
  5
3DE
  8
R2V
 62
     0
 10
275.0
 20
1443.0
 30
0.0
 70
    32
  0
SEQEND
  5
3DF
  8
R2V
 62
     0
  0
POLYLINE
  5
3E0
  8
R2V
 62
     0
 66
     1
 10
0.0
 20
0.0
 30
0.0
 70
     8
  0
VERTEX
  5
3E1
  8
R2V
 62
     0
 10
306.0
 20
1482.0
 30
0.0
 70
    32
  0
VERTEX
  5
3E2
  8
R2V
 62
     0
 10
334.0
 20
1444.0
 30
0.0
 70
    32
  0
SEQEND
  5
3E3
  8
R2V
 62
     0
  0
POLYLINE
  5
3E4
  8
R2V
 62
     0
 66
     1
 10
0.0
 20
0.0
 30
0.0
 70
     8
  0
VERTEX
  5
3E5
  8
R2V
 62
     0
 10
1531.0
 20
1482.0
 30
0.0
 70
    32
  0
VERTEX
  5
3E6
  8
R2V
 62
     0
 10
1531.0
 20
1517.0
 30
0.0
 70
    32
  0
VERTEX
  5
3E7
  8
R2V
 62
     0
 10
1585.0
 20
1517.0
 30
0.0
 70
    32
  0
SEQEND
  5
3E8
  8
R2V
 62
     0
  0
POLYLINE
  5
3E9
  8
R2V
 62
     0
 66
     1
 10
0.0
 20
0.0
 30
0.0
 70
     8
  0
VERTEX
  5
3EA
  8
R2V
 62
     0
 10
1531.0
 20
1482.0
 30
0.0
 70
    32
  0
VERTEX
  5
3EB
  8
R2V
 62
     0
 10
1564.0
 20
1482.0
 30
0.0
 70
    32
  0
SEQEND
  5
3EC
  8
R2V
 62
     0
  0
POLYLINE
  5
3ED
  8
R2V
 62
     0
 66
     1
 10
0.0
 20
0.0
 30
0.0
 70
     8
  0
VERTEX
  5
3EE
  8
R2V
 62
     0
 10
1531.0
 20
1482.0
 30
0.0
 70
    32
  0
VERTEX
  5
3EF
  8
R2V
 62
     0
 10
1531.0
 20
1443.0
 30
0.0
 70
    32
  0
VERTEX
  5
3F0
  8
R2V
 62
     0
 10
1585.0
 20
1443.0
 30
0.0
 70
    32
  0
SEQEND
  5
3F1
  8
R2V
 62
     0
  0
POLYLINE
  5
3F2
  8
R2V
 62
     0
 66
     1
 10
0.0
 20
0.0
 30
0.0
 70
     8
  0
VERTEX
  5
3F3
  8
R2V
 62
     0
 10
531.0
 20
1492.0
 30
0.0
 70
    32
  0
VERTEX
  5
3F4
  8
R2V
 62
     0
 10
531.0
 20
1517.0
 30
0.0
 70
    32
  0
SEQEND
  5
3F5
  8
R2V
 62
     0
  0
POLYLINE
  5
3F6
  8
R2V
 62
     0
 66
     1
 10
0.0
 20
0.0
 30
0.0
 70
     8
  0
VERTEX
  5
3F7
  8
R2V
 62
     0
 10
531.0
 20
1492.0
 30
0.0
 70
    32
  0
VERTEX
  5
3F8
  8
R2V
 62
     0
 10
547.0
 20
1492.0
 30
0.0
 70
    32
  0
SEQEND
  5
3F9
  8
R2V
 62
     0
  0
POLYLINE
  5
3FA
  8
R2V
 62
     0
 66
     1
 10
0.0
 20
0.0
 30
0.0
 70
     8
  0
VERTEX
  5
3FB
  8
R2V
 62
     0
 10
531.0
 20
1492.0
 30
0.0
 70
    32
  0
VERTEX
  5
3FC
  8
R2V
 62
     0
 10
532.0
 20
1453.0
 30
0.0
 70
    32
  0
VERTEX
  5
3FD
  8
R2V
 62
     0
 10
537.0
 20
1445.0
 30
0.0
 70
    32
  0
VERTEX
  5
3FE
  8
R2V
 62
     0
 10
539.0
 20
1445.0
 30
0.0
 70
    32
  0
VERTEX
  5
3FF
  8
R2V
 62
     0
 10
551.0
 20
1443.0
 30
0.0
 70
    32
  0
SEQEND
  5
400
  8
R2V
 62
     0
  0
POLYLINE
  5
401
  8
R2V
 62
     0
 66
     1
 10
0.0
 20
0.0
 30
0.0
 70
     8
  0
VERTEX
  5
402
  8
R2V
 62
     0
 10
531.0
 20
1492.0
 30
0.0
 70
    32
  0
VERTEX
  5
403
  8
R2V
 62
     0
 10
518.0
 20
1492.0
 30
0.0
 70
    32
  0
SEQEND
  5
404
  8
R2V
 62
     0
  0
POLYLINE
  5
405
  8
R2V
 62
     0
 66
     1
 10
0.0
 20
0.0
 30
0.0
 70
     8
  0
VERTEX
  5
406
  8
R2V
 62
     0
 10
805.0
 20
1492.0
 30
0.0
 70
    32
  0
VERTEX
  5
407
  8
R2V
 62
     0
 10
805.0
 20
1517.0
 30
0.0
 70
    32
  0
SEQEND
  5
408
  8
R2V
 62
     0
  0
POLYLINE
  5
409
  8
R2V
 62
     0
 66
     1
 10
0.0
 20
0.0
 30
0.0
 70
     8
  0
VERTEX
  5
40A
  8
R2V
 62
     0
 10
805.0
 20
1492.0
 30
0.0
 70
    32
  0
VERTEX
  5
40B
  8
R2V
 62
     0
 10
821.0
 20
1492.0
 30
0.0
 70
    32
  0
SEQEND
  5
40C
  8
R2V
 62
     0
  0
POLYLINE
  5
40D
  8
R2V
 62
     0
 66
     1
 10
0.0
 20
0.0
 30
0.0
 70
     8
  0
VERTEX
  5
40E
  8
R2V
 62
     0
 10
805.0
 20
1492.0
 30
0.0
 70
    32
  0
VERTEX
  5
40F
  8
R2V
 62
     0
 10
806.0
 20
1453.0
 30
0.0
 70
    32
  0
VERTEX
  5
410
  8
R2V
 62
     0
 10
811.0
 20
1445.0
 30
0.0
 70
    32
  0
VERTEX
  5
411
  8
R2V
 62
     0
 10
813.0
 20
1445.0
 30
0.0
 70
    32
  0
VERTEX
  5
412
  8
R2V
 62
     0
 10
825.0
 20
1443.0
 30
0.0
 70
    32
  0
SEQEND
  5
413
  8
R2V
 62
     0
  0
POLYLINE
  5
414
  8
R2V
 62
     0
 66
     1
 10
0.0
 20
0.0
 30
0.0
 70
     8
  0
VERTEX
  5
415
  8
R2V
 62
     0
 10
805.0
 20
1492.0
 30
0.0
 70
    32
  0
VERTEX
  5
416
  8
R2V
 62
     0
 10
792.0
 20
1492.0
 30
0.0
 70
    32
  0
SEQEND
  5
417
  8
R2V
 62
     0
  0
POLYLINE
  5
418
  8
R2V
 62
     0
 66
     1
 10
0.0
 20
0.0
 30
0.0
 70
     8
  0
VERTEX
  5
419
  8
R2V
 62
     0
 10
1266.0
 20
1492.0
 30
0.0
 70
    32
  0
VERTEX
  5
41A
  8
R2V
 62
     0
 10
1266.0
 20
1517.0
 30
0.0
 70
    32
  0
SEQEND
  5
41B
  8
R2V
 62
     0
  0
POLYLINE
  5
41C
  8
R2V
 62
     0
 66
     1
 10
0.0
 20
0.0
 30
0.0
 70
     8
  0
VERTEX
  5
41D
  8
R2V
 62
     0
 10
1266.0
 20
1492.0
 30
0.0
 70
    32
  0
VERTEX
  5
41E
  8
R2V
 62
     0
 10
1282.0
 20
1492.0
 30
0.0
 70
    32
  0
SEQEND
  5
41F
  8
R2V
 62
     0
  0
POLYLINE
  5
420
  8
R2V
 62
     0
 66
     1
 10
0.0
 20
0.0
 30
0.0
 70
     8
  0
VERTEX
  5
421
  8
R2V
 62
     0
 10
1266.0
 20
1492.0
 30
0.0
 70
    32
  0
VERTEX
  5
422
  8
R2V
 62
     0
 10
1267.0
 20
1453.0
 30
0.0
 70
    32
  0
VERTEX
  5
423
  8
R2V
 62
     0
 10
1272.0
 20
1445.0
 30
0.0
 70
    32
  0
VERTEX
  5
424
  8
R2V
 62
     0
 10
1274.0
 20
1445.0
 30
0.0
 70
    32
  0
VERTEX
  5
425
  8
R2V
 62
     0
 10
1286.0
 20
1443.0
 30
0.0
 70
    32
  0
SEQEND
  5
426
  8
R2V
 62
     0
  0
POLYLINE
  5
427
  8
R2V
 62
     0
 66
     1
 10
0.0
 20
0.0
 30
0.0
 70
     8
  0
VERTEX
  5
428
  8
R2V
 62
     0
 10
1266.0
 20
1492.0
 30
0.0
 70
    32
  0
VERTEX
  5
429
  8
R2V
 62
     0
 10
1253.0
 20
1492.0
 30
0.0
 70
    32
  0
SEQEND
  5
42A
  8
R2V
 62
     0
  0
POLYLINE
  5
42B
  8
R2V
 62
     0
 66
     1
 10
0.0
 20
0.0
 30
0.0
 70
     8
  0
VERTEX
  5
42C
  8
R2V
 62
     0
 10
1747.0
 20
8.0
 30
0.0
 70
    32
  0
VERTEX
  5
42D
  8
R2V
 62
     0
 10
1768.0
 20
11.0
 30
0.0
 70
    32
  0
VERTEX
  5
42E
  8
R2V
 62
     0
 10
1784.0
 20
21.0
 30
0.0
 70
    32
  0
VERTEX
  5
42F
  8
R2V
 62
     0
 10
1795.0
 20
35.0
 30
0.0
 70
    32
  0
VERTEX
  5
430
  8
R2V
 62
     0
 10
1799.0
 20
44.0
 30
0.0
 70
    32
  0
VERTEX
  5
431
  8
R2V
 62
     0
 10
1799.0
 20
69.0
 30
0.0
 70
    32
  0
VERTEX
  5
432
  8
R2V
 62
     0
 10
1789.0
 20
87.0
 30
0.0
 70
    32
  0
VERTEX
  5
433
  8
R2V
 62
     0
 10
1776.0
 20
99.0
 30
0.0
 70
    32
  0
VERTEX
  5
434
  8
R2V
 62
     0
 10
1765.0
 20
104.0
 30
0.0
 70
    32
  0
VERTEX
  5
435
  8
R2V
 62
     0
 10
1739.0
 20
104.0
 30
0.0
 70
    32
  0
VERTEX
  5
436
  8
R2V
 62
     0
 10
1719.0
 20
93.0
 30
0.0
 70
    32
  0
VERTEX
  5
437
  8
R2V
 62
     0
 10
1707.0
 20
76.0
 30
0.0
 70
    32
  0
VERTEX
  5
438
  8
R2V
 62
     0
 10
1703.0
 20
62.0
 30
0.0
 70
    32
  0
VERTEX
  5
439
  8
R2V
 62
     0
 10
1705.0
 20
44.0
 30
0.0
 70
    32
  0
VERTEX
  5
43A
  8
R2V
 62
     0
 10
1713.0
 20
28.0
 30
0.0
 70
    32
  0
VERTEX
  5
43B
  8
R2V
 62
     0
 10
1726.0
 20
15.0
 30
0.0
 70
    32
  0
VERTEX
  5
43C
  8
R2V
 62
     0
 10
1728.0
 20
15.0
 30
0.0
 70
    32
  0
VERTEX
  5
43D
  8
R2V
 62
     0
 10
1747.0
 20
8.0
 30
0.0
 70
    32
  0
SEQEND
  5
43E
  8
R2V
 62
     0
  0
POLYLINE
  5
43F
  8
R2V
 62
     0
 66
     1
 10
0.0
 20
0.0
 30
0.0
 70
     8
  0
VERTEX
  5
440
  8
R2V
 62
     0
 10
1926.0
 20
8.0
 30
0.0
 70
    32
  0
VERTEX
  5
441
  8
R2V
 62
     0
 10
1943.0
 20
10.0
 30
0.0
 70
    32
  0
VERTEX
  5
442
  8
R2V
 62
     0
 10
1959.0
 20
18.0
 30
0.0
 70
    32
  0
VERTEX
  5
443
  8
R2V
 62
     0
 10
1972.0
 20
31.0
 30
0.0
 70
    32
  0
VERTEX
  5
444
  8
R2V
 62
     0
 10
1979.0
 20
48.0
 30
0.0
 70
    32
  0
VERTEX
  5
445
  8
R2V
 62
     0
 10
1978.0
 20
69.0
 30
0.0
 70
    32
  0
VERTEX
  5
446
  8
R2V
 62
     0
 10
1967.0
 20
89.0
 30
0.0
 70
    32
  0
VERTEX
  5
447
  8
R2V
 62
     0
 10
1951.0
 20
101.0
 30
0.0
 70
    32
  0
VERTEX
  5
448
  8
R2V
 62
     0
 10
1936.0
 20
105.0
 30
0.0
 70
    32
  0
VERTEX
  5
449
  8
R2V
 62
     0
 10
1913.0
 20
102.0
 30
0.0
 70
    32
  0
VERTEX
  5
44A
  8
R2V
 62
     0
 10
1898.0
 20
92.0
 30
0.0
 70
    32
  0
VERTEX
  5
44B
  8
R2V
 62
     0
 10
1885.0
 20
73.0
 30
0.0
 70
    32
  0
VERTEX
  5
44C
  8
R2V
 62
     0
 10
1882.0
 20
55.0
 30
0.0
 70
    32
  0
VERTEX
  5
44D
  8
R2V
 62
     0
 10
1888.0
 20
34.0
 30
0.0
 70
    32
  0
VERTEX
  5
44E
  8
R2V
 62
     0
 10
1901.0
 20
19.0
 30
0.0
 70
    32
  0
VERTEX
  5
44F
  8
R2V
 62
     0
 10
1912.0
 20
12.0
 30
0.0
 70
    32
  0
VERTEX
  5
450
  8
R2V
 62
     0
 10
1914.0
 20
12.0
 30
0.0
 70
    32
  0
VERTEX
  5
451
  8
R2V
 62
     0
 10
1926.0
 20
8.0
 30
0.0
 70
    32
  0
SEQEND
  5
452
  8
R2V
 62
     0
  0
POLYLINE
  5
453
  8
R2V
 62
     0
 66
     1
 10
0.0
 20
0.0
 30
0.0
 70
     8
  0
VERTEX
  5
454
  8
R2V
 62
     0
 10
1471.0
 20
24.0
 30
0.0
 70
    32
  0
VERTEX
  5
455
  8
R2V
 62
     0
 10
1497.0
 20
64.0
 30
0.0
 70
    32
  0
SEQEND
  5
456
  8
R2V
 62
     0
  0
POLYLINE
  5
457
  8
R2V
 62
     0
 66
     1
 10
0.0
 20
0.0
 30
0.0
 70
     8
  0
VERTEX
  5
458
  8
R2V
 62
     0
 10
875.0
 20
33.0
 30
0.0
 70
    32
  0
VERTEX
  5
459
  8
R2V
 62
     0
 10
888.0
 20
35.0
 30
0.0
 70
    32
  0
VERTEX
  5
45A
  8
R2V
 62
     0
 10
890.0
 20
38.0
 30
0.0
 70
    32
  0
SEQEND
  5
45B
  8
R2V
 62
     0
  0
POLYLINE
  5
45C
  8
R2V
 62
     0
 66
     1
 10
0.0
 20
0.0
 30
0.0
 70
     8
  0
VERTEX
  5
45D
  8
R2V
 62
     0
 10
875.0
 20
33.0
 30
0.0
 70
    32
  0
VERTEX
  5
45E
  8
R2V
 62
     0
 10
868.0
 20
40.0
 30
0.0
 70
    32
  0
VERTEX
  5
45F
  8
R2V
 62
     0
 10
868.0
 20
52.0
 30
0.0
 70
    32
  0
VERTEX
  5
460
  8
R2V
 62
     0
 10
875.0
 20
59.0
 30
0.0
 70
    32
  0
VERTEX
  5
461
  8
R2V
 62
     0
 10
884.0
 20
59.0
 30
0.0
 70
    32
  0
VERTEX
  5
462
  8
R2V
 62
     0
 10
890.0
 20
53.0
 30
0.0
 70
    32
  0
SEQEND
  5
463
  8
R2V
 62
     0
  0
POLYLINE
  5
464
  8
R2V
 62
     0
 66
     1
 10
0.0
 20
0.0
 30
0.0
 70
     8
  0
VERTEX
  5
465
  8
R2V
 62
     0
 10
900.0
 20
33.0
 30
0.0
 70
    32
  0
VERTEX
  5
466
  8
R2V
 62
     0
 10
900.0
 20
58.0
 30
0.0
 70
    32
  0
SEQEND
  5
467
  8
R2V
 62
     0
  0
POLYLINE
  5
468
  8
R2V
 62
     0
 66
     1
 10
0.0
 20
0.0
 30
0.0
 70
     8
  0
VERTEX
  5
469
  8
R2V
 62
     0
 10
1008.0
 20
33.0
 30
0.0
 70
    32
  0
VERTEX
  5
46A
  8
R2V
 62
     0
 10
1020.0
 20
35.0
 30
0.0
 70
    32
  0
VERTEX
  5
46B
  8
R2V
 62
     0
 10
1024.0
 20
42.0
 30
0.0
 70
    32
  0
VERTEX
  5
46C
  8
R2V
 62
     0
 10
1022.0
 20
55.0
 30
0.0
 70
    32
  0
VERTEX
  5
46D
  8
R2V
 62
     0
 10
1016.0
 20
59.0
 30
0.0
 70
    32
  0
VERTEX
  5
46E
  8
R2V
 62
     0
 10
1004.0
 20
57.0
 30
0.0
 70
    32
  0
VERTEX
  5
46F
  8
R2V
 62
     0
 10
1000.0
 20
51.0
 30
0.0
 70
    32
  0
VERTEX
  5
470
  8
R2V
 62
     0
 10
1001.0
 20
39.0
 30
0.0
 70
    32
  0
VERTEX
  5
471
  8
R2V
 62
     0
 10
1008.0
 20
33.0
 30
0.0
 70
    32
  0
SEQEND
  5
472
  8
R2V
 62
     0
  0
POLYLINE
  5
473
  8
R2V
 62
     0
 66
     1
 10
0.0
 20
0.0
 30
0.0
 70
     8
  0
VERTEX
  5
474
  8
R2V
 62
     0
 10
1127.0
 20
33.0
 30
0.0
 70
    32
  0
VERTEX
  5
475
  8
R2V
 62
     0
 10
1127.0
 20
58.0
 30
0.0
 70
    32
  0
SEQEND
  5
476
  8
R2V
 62
     0
  0
POLYLINE
  5
477
  8
R2V
 62
     0
 66
     1
 10
0.0
 20
0.0
 30
0.0
 70
     8
  0
VERTEX
  5
478
  8
R2V
 62
     0
 10
1140.0
 20
33.0
 30
0.0
 70
    32
  0
VERTEX
  5
479
  8
R2V
 62
     0
 10
1141.0
 20
58.0
 30
0.0
 70
    32
  0
VERTEX
  5
47A
  8
R2V
 62
     0
 10
1161.0
 20
34.0
 30
0.0
 70
    32
  0
VERTEX
  5
47B
  8
R2V
 62
     0
 10
1161.0
 20
58.0
 30
0.0
 70
    32
  0
SEQEND
  5
47C
  8
R2V
 62
     0
  0
POLYLINE
  5
47D
  8
R2V
 62
     0
 66
     1
 10
0.0
 20
0.0
 30
0.0
 70
     8
  0
VERTEX
  5
47E
  8
R2V
 62
     0
 10
1173.0
 20
33.0
 30
0.0
 70
    32
  0
VERTEX
  5
47F
  8
R2V
 62
     0
 10
1174.0
 20
58.0
 30
0.0
 70
    32
  0
VERTEX
  5
480
  8
R2V
 62
     0
 10
1195.0
 20
34.0
 30
0.0
 70
    32
  0
VERTEX
  5
481
  8
R2V
 62
     0
 10
1195.0
 20
58.0
 30
0.0
 70
    32
  0
SEQEND
  5
482
  8
R2V
 62
     0
  0
POLYLINE
  5
483
  8
R2V
 62
     0
 66
     1
 10
0.0
 20
0.0
 30
0.0
 70
     8
  0
VERTEX
  5
484
  8
R2V
 62
     0
 10
1311.0
 20
33.0
 30
0.0
 70
    32
  0
VERTEX
  5
485
  8
R2V
 62
     0
 10
1323.0
 20
35.0
 30
0.0
 70
    32
  0
VERTEX
  5
486
  8
R2V
 62
     0
 10
1327.0
 20
42.0
 30
0.0
 70
    32
  0
VERTEX
  5
487
  8
R2V
 62
     0
 10
1325.0
 20
55.0
 30
0.0
 70
    32
  0
VERTEX
  5
488
  8
R2V
 62
     0
 10
1319.0
 20
59.0
 30
0.0
 70
    32
  0
VERTEX
  5
489
  8
R2V
 62
     0
 10
1307.0
 20
57.0
 30
0.0
 70
    32
  0
VERTEX
  5
48A
  8
R2V
 62
     0
 10
1303.0
 20
51.0
 30
0.0
 70
    32
  0
VERTEX
  5
48B
  8
R2V
 62
     0
 10
1304.0
 20
39.0
 30
0.0
 70
    32
  0
VERTEX
  5
48C
  8
R2V
 62
     0
 10
1311.0
 20
33.0
 30
0.0
 70
    32
  0
SEQEND
  5
48D
  8
R2V
 62
     0
  0
POLYLINE
  5
48E
  8
R2V
 62
     0
 66
     1
 10
0.0
 20
0.0
 30
0.0
 70
     8
  0
VERTEX
  5
48F
  8
R2V
 62
     0
 10
1336.0
 20
33.0
 30
0.0
 70
    32
  0
VERTEX
  5
490
  8
R2V
 62
     0
 10
1336.0
 20
59.0
 30
0.0
 70
    32
  0
SEQEND
  5
491
  8
R2V
 62
     0
  0
POLYLINE
  5
492
  8
R2V
 62
     0
 66
     1
 10
0.0
 20
0.0
 30
0.0
 70
     8
  0
VERTEX
  5
493
  8
R2V
 62
     0
 10
1336.0
 20
33.0
 30
0.0
 70
    32
  0
VERTEX
  5
494
  8
R2V
 62
     0
 10
1354.0
 20
33.0
 30
0.0
 70
    32
  0
SEQEND
  5
495
  8
R2V
 62
     0
  0
POLYLINE
  5
496
  8
R2V
 62
     0
 66
     1
 10
0.0
 20
0.0
 30
0.0
 70
     8
  0
VERTEX
  5
497
  8
R2V
 62
     0
 10
1363.0
 20
33.0
 30
0.0
 70
    32
  0
VERTEX
  5
498
  8
R2V
 62
     0
 10
1363.0
 20
58.0
 30
0.0
 70
    32
  0
SEQEND
  5
499
  8
R2V
 62
     0
  0
POLYLINE
  5
49A
  8
R2V
 62
     0
 66
     1
 10
0.0
 20
0.0
 30
0.0
 70
     8
  0
VERTEX
  5
49B
  8
R2V
 62
     0
 10
1381.0
 20
33.0
 30
0.0
 70
    32
  0
VERTEX
  5
49C
  8
R2V
 62
     0
 10
1395.0
 20
35.0
 30
0.0
 70
    32
  0
VERTEX
  5
49D
  8
R2V
 62
     0
 10
1395.0
 20
43.0
 30
0.0
 70
    32
  0
VERTEX
  5
49E
  8
R2V
 62
     0
 10
1376.0
 20
51.0
 30
0.0
 70
    32
  0
VERTEX
  5
49F
  8
R2V
 62
     0
 10
1376.0
 20
57.0
 30
0.0
 70
    32
  0
VERTEX
  5
4A0
  8
R2V
 62
     0
 10
1391.0
 20
59.0
 30
0.0
 70
    32
  0
VERTEX
  5
4A1
  8
R2V
 62
     0
 10
1396.0
 20
56.0
 30
0.0
 70
    32
  0
SEQEND
  5
4A2
  8
R2V
 62
     0
  0
POLYLINE
  5
4A3
  8
R2V
 62
     0
 66
     1
 10
0.0
 20
0.0
 30
0.0
 70
     8
  0
VERTEX
  5
4A4
  8
R2V
 62
     0
 10
1381.0
 20
33.0
 30
0.0
 70
    32
  0
VERTEX
  5
4A5
  8
R2V
 62
     0
 10
1380.0
 20
34.0
 30
0.0
 70
    32
  0
VERTEX
  5
4A6
  8
R2V
 62
     0
 10
1378.0
 20
34.0
 30
0.0
 70
    32
  0
VERTEX
  5
4A7
  8
R2V
 62
     0
 10
1377.0
 20
35.0
 30
0.0
 70
    32
  0
VERTEX
  5
4A8
  8
R2V
 62
     0
 10
1376.0
 20
35.0
 30
0.0
 70
    32
  0
SEQEND
  5
4A9
  8
R2V
 62
     0
  0
POLYLINE
  5
4AA
  8
R2V
 62
     0
 66
     1
 10
0.0
 20
0.0
 30
0.0
 70
     8
  0
VERTEX
  5
4AB
  8
R2V
 62
     0
 10
1453.0
 20
33.0
 30
0.0
 70
    32
  0
VERTEX
  5
4AC
  8
R2V
 62
     0
 10
1452.0
 20
58.0
 30
0.0
 70
    32
  0
VERTEX
  5
4AD
  8
R2V
 62
     0
 10
1445.0
 20
54.0
 30
0.0
 70
    32
  0
SEQEND
  5
4AE
  8
R2V
 62
     0
  0
POLYLINE
  5
4AF
  8
R2V
 62
     0
 66
     1
 10
0.0
 20
0.0
 30
0.0
 70
     8
  0
VERTEX
  5
4B0
  8
R2V
 62
     0
 10
1541.0
 20
33.0
 30
0.0
 70
    32
  0
VERTEX
  5
4B1
  8
R2V
 62
     0
 10
1555.0
 20
59.0
 30
0.0
 70
    32
  0
VERTEX
  5
4B2
  8
R2V
 62
     0
 10
1534.0
 20
59.0
 30
0.0
 70
    32
  0
SEQEND
  5
4B3
  8
R2V
 62
     0
  0
POLYLINE
  5
4B4
  8
R2V
 62
     0
 66
     1
 10
0.0
 20
0.0
 30
0.0
 70
     8
  0
VERTEX
  5
4B5
  8
R2V
 62
     0
 10
428.0
 20
44.0
 30
0.0
 70
    32
  0
VERTEX
  5
4B6
  8
R2V
 62
     0
 10
428.0
 20
383.0
 30
0.0
 70
    32
  0
VERTEX
  5
4B7
  8
R2V
 62
     0
 10
588.0
 20
383.0
 30
0.0
 70
    32
  0
VERTEX
  5
4B8
  8
R2V
 62
     0
 10
588.0
 20
46.0
 30
0.0
 70
    32
  0
VERTEX
  5
4B9
  8
R2V
 62
     0
 10
428.0
 20
44.0
 30
0.0
 70
    32
  0
SEQEND
  5
4BA
  8
R2V
 62
     0
  0
POLYLINE
  5
4BB
  8
R2V
 62
     0
 66
     1
 10
0.0
 20
0.0
 30
0.0
 70
     8
  0
VERTEX
  5
4BC
  8
R2V
 62
     0
 10
237.0
 20
46.0
 30
0.0
 70
    32
  0
VERTEX
  5
4BD
  8
R2V
 62
     0
 10
237.0
 20
194.0
 30
0.0
 70
    32
  0
VERTEX
  5
4BE
  8
R2V
 62
     0
 10
313.0
 20
194.0
 30
0.0
 70
    32
  0
VERTEX
  5
4BF
  8
R2V
 62
     0
 10
314.0
 20
195.0
 30
0.0
 70
    32
  0
VERTEX
  5
4C0
  8
R2V
 62
     0
 10
390.0
 20
195.0
 30
0.0
 70
    32
  0
VERTEX
  5
4C1
  8
R2V
 62
     0
 10
390.0
 20
46.0
 30
0.0
 70
    32
  0
VERTEX
  5
4C2
  8
R2V
 62
     0
 10
237.0
 20
46.0
 30
0.0
 70
    32
  0
SEQEND
  5
4C3
  8
R2V
 62
     0
  0
POLYLINE
  5
4C4
  8
R2V
 62
     0
 66
     1
 10
0.0
 20
0.0
 30
0.0
 70
     8
  0
VERTEX
  5
4C5
  8
R2V
 62
     0
 10
791.0
 20
58.0
 30
0.0
 70
    32
  0
VERTEX
  5
4C6
  8
R2V
 62
     0
 10
793.0
 20
183.0
 30
0.0
 70
    32
  0
VERTEX
  5
4C7
  8
R2V
 62
     0
 10
813.0
 20
241.0
 30
0.0
 70
    32
  0
VERTEX
  5
4C8
  8
R2V
 62
     0
 10
809.0
 20
319.0
 30
0.0
 70
    32
  0
VERTEX
  5
4C9
  8
R2V
 62
     0
 10
812.0
 20
362.0
 30
0.0
 70
    32
  0
VERTEX
  5
4CA
  8
R2V
 62
     0
 10
834.0
 20
391.0
 30
0.0
 70
    32
  0
VERTEX
  5
4CB
  8
R2V
 62
     0
 10
860.0
 20
402.0
 30
0.0
 70
    32
  0
SEQEND
  5
4CC
  8
R2V
 62
     0
  0
POLYLINE
  5
4CD
  8
R2V
 62
     0
 66
     1
 10
0.0
 20
0.0
 30
0.0
 70
     8
  0
VERTEX
  5
4CE
  8
R2V
 62
     0
 10
834.0
 20
59.0
 30
0.0
 70
    32
  0
VERTEX
  5
4CF
  8
R2V
 62
     0
 10
834.0
 20
196.0
 30
0.0
 70
    32
  0
VERTEX
  5
4D0
  8
R2V
 62
     0
 10
970.0
 20
196.0
 30
0.0
 70
    32
  0
VERTEX
  5
4D1
  8
R2V
 62
     0
 10
970.0
 20
153.0
 30
0.0
 70
    32
  0
SEQEND
  5
4D2
  8
R2V
 62
     0
  0
POLYLINE
  5
4D3
  8
R2V
 62
     0
 66
     1
 10
0.0
 20
0.0
 30
0.0
 70
     8
  0
VERTEX
  5
4D4
  8
R2V
 62
     0
 10
867.0
 20
73.0
 30
0.0
 70
    32
  0
VERTEX
  5
4D5
  8
R2V
 62
     0
 10
867.0
 20
100.0
 30
0.0
 70
    32
  0
VERTEX
  5
4D6
  8
R2V
 62
     0
 10
880.0
 20
100.0
 30
0.0
 70
    32
  0
VERTEX
  5
4D7
  8
R2V
 62
     0
 10
888.0
 20
92.0
 30
0.0
 70
    32
  0
VERTEX
  5
4D8
  8
R2V
 62
     0
 10
888.0
 20
81.0
 30
0.0
 70
    32
  0
VERTEX
  5
4D9
  8
R2V
 62
     0
 10
880.0
 20
73.0
 30
0.0
 70
    32
  0
VERTEX
  5
4DA
  8
R2V
 62
     0
 10
867.0
 20
73.0
 30
0.0
 70
    32
  0
SEQEND
  5
4DB
  8
R2V
 62
     0
  0
POLYLINE
  5
4DC
  8
R2V
 62
     0
 66
     1
 10
0.0
 20
0.0
 30
0.0
 70
     8
  0
VERTEX
  5
4DD
  8
R2V
 62
     0
 10
1121.0
 20
73.0
 30
0.0
 70
    32
  0
VERTEX
  5
4DE
  8
R2V
 62
     0
 10
1122.0
 20
99.0
 30
0.0
 70
    32
  0
VERTEX
  5
4DF
  8
R2V
 62
     0
 10
1143.0
 20
74.0
 30
0.0
 70
    32
  0
VERTEX
  5
4E0
  8
R2V
 62
     0
 10
1143.0
 20
99.0
 30
0.0
 70
    32
  0
SEQEND
  5
4E1
  8
R2V
 62
     0
  0
POLYLINE
  5
4E2
  8
R2V
 62
     0
 66
     1
 10
0.0
 20
0.0
 30
0.0
 70
     8
  0
VERTEX
  5
4E3
  8
R2V
 62
     0
 10
1220.0
 20
73.0
 30
0.0
 70
    32
  0
VERTEX
  5
4E4
  8
R2V
 62
     0
 10
1231.0
 20
75.0
 30
0.0
 70
    32
  0
VERTEX
  5
4E5
  8
R2V
 62
     0
 10
1236.0
 20
82.0
 30
0.0
 70
    32
  0
VERTEX
  5
4E6
  8
R2V
 62
     0
 10
1234.0
 20
95.0
 30
0.0
 70
    32
  0
VERTEX
  5
4E7
  8
R2V
 62
     0
 10
1228.0
 20
100.0
 30
0.0
 70
    32
  0
VERTEX
  5
4E8
  8
R2V
 62
     0
 10
1217.0
 20
98.0
 30
0.0
 70
    32
  0
VERTEX
  5
4E9
  8
R2V
 62
     0
 10
1212.0
 20
91.0
 30
0.0
 70
    32
  0
VERTEX
  5
4EA
  8
R2V
 62
     0
 10
1213.0
 20
79.0
 30
0.0
 70
    32
  0
VERTEX
  5
4EB
  8
R2V
 62
     0
 10
1220.0
 20
73.0
 30
0.0
 70
    32
  0
SEQEND
  5
4EC
  8
R2V
 62
     0
  0
POLYLINE
  5
4ED
  8
R2V
 62
     0
 66
     1
 10
0.0
 20
0.0
 30
0.0
 70
     8
  0
VERTEX
  5
4EE
  8
R2V
 62
     0
 10
1342.0
 20
73.0
 30
0.0
 70
    32
  0
VERTEX
  5
4EF
  8
R2V
 62
     0
 10
1353.0
 20
75.0
 30
0.0
 70
    32
  0
VERTEX
  5
4F0
  8
R2V
 62
     0
 10
1356.0
 20
80.0
 30
0.0
 70
    32
  0
VERTEX
  5
4F1
  8
R2V
 62
     0
 10
1356.0
 20
99.0
 30
0.0
 70
    32
  0
SEQEND
  5
4F2
  8
R2V
 62
     0
  0
POLYLINE
  5
4F3
  8
R2V
 62
     0
 66
     1
 10
0.0
 20
0.0
 30
0.0
 70
     8
  0
VERTEX
  5
4F4
  8
R2V
 62
     0
 10
1342.0
 20
73.0
 30
0.0
 70
    32
  0
VERTEX
  5
4F5
  8
R2V
 62
     0
 10
1335.0
 20
79.0
 30
0.0
 70
    32
  0
VERTEX
  5
4F6
  8
R2V
 62
     0
 10
1335.0
 20
100.0
 30
0.0
 70
    32
  0
SEQEND
  5
4F7
  8
R2V
 62
     0
  0
POLYLINE
  5
4F8
  8
R2V
 62
     0
 66
     1
 10
0.0
 20
0.0
 30
0.0
 70
     8
  0
VERTEX
  5
4F9
  8
R2V
 62
     0
 10
1401.0
 20
73.0
 30
0.0
 70
    32
  0
VERTEX
  5
4FA
  8
R2V
 62
     0
 10
1401.0
 20
100.0
 30
0.0
 70
    32
  0
SEQEND
  5
4FB
  8
R2V
 62
     0
  0
POLYLINE
  5
4FC
  8
R2V
 62
     0
 66
     1
 10
0.0
 20
0.0
 30
0.0
 70
     8
  0
VERTEX
  5
4FD
  8
R2V
 62
     0
 10
1401.0
 20
73.0
 30
0.0
 70
    32
  0
VERTEX
  5
4FE
  8
R2V
 62
     0
 10
1418.0
 20
73.0
 30
0.0
 70
    32
  0
SEQEND
  5
4FF
  8
R2V
 62
     0
  0
POLYLINE
  5
500
  8
R2V
 62
     0
 66
     1
 10
0.0
 20
0.0
 30
0.0
 70
     8
  0
VERTEX
  5
501
  8
R2V
 62
     0
 10
1427.0
 20
73.0
 30
0.0
 70
    32
  0
VERTEX
  5
502
  8
R2V
 62
     0
 10
1427.0
 20
99.0
 30
0.0
 70
    32
  0
SEQEND
  5
503
  8
R2V
 62
     0
  0
POLYLINE
  5
504
  8
R2V
 62
     0
 66
     1
 10
0.0
 20
0.0
 30
0.0
 70
     8
  0
VERTEX
  5
505
  8
R2V
 62
     0
 10
1448.0
 20
73.0
 30
0.0
 70
    32
  0
VERTEX
  5
506
  8
R2V
 62
     0
 10
1459.0
 20
75.0
 30
0.0
 70
    32
  0
VERTEX
  5
507
  8
R2V
 62
     0
 10
1462.0
 20
78.0
 30
0.0
 70
    32
  0
SEQEND
  5
508
  8
R2V
 62
     0
  0
POLYLINE
  5
509
  8
R2V
 62
     0
 66
     1
 10
0.0
 20
0.0
 30
0.0
 70
     8
  0
VERTEX
  5
50A
  8
R2V
 62
     0
 10
1448.0
 20
73.0
 30
0.0
 70
    32
  0
VERTEX
  5
50B
  8
R2V
 62
     0
 10
1439.0
 20
82.0
 30
0.0
 70
    32
  0
VERTEX
  5
50C
  8
R2V
 62
     0
 10
1441.0
 20
93.0
 30
0.0
 70
    32
  0
VERTEX
  5
50D
  8
R2V
 62
     0
 10
1448.0
 20
100.0
 30
0.0
 70
    32
  0
VERTEX
  5
50E
  8
R2V
 62
     0
 10
1456.0
 20
100.0
 30
0.0
 70
    32
  0
VERTEX
  5
50F
  8
R2V
 62
     0
 10
1463.0
 20
93.0
 30
0.0
 70
    32
  0
SEQEND
  5
510
  8
R2V
 62
     0
  0
POLYLINE
  5
511
  8
R2V
 62
     0
 66
     1
 10
0.0
 20
0.0
 30
0.0
 70
     8
  0
VERTEX
  5
512
  8
R2V
 62
     0
 10
1546.0
 20
73.0
 30
0.0
 70
    32
  0
VERTEX
  5
513
  8
R2V
 62
     0
 10
1557.0
 20
75.0
 30
0.0
 70
    32
  0
VERTEX
  5
514
  8
R2V
 62
     0
 10
1562.0
 20
82.0
 30
0.0
 70
    32
  0
VERTEX
  5
515
  8
R2V
 62
     0
 10
1560.0
 20
95.0
 30
0.0
 70
    32
  0
VERTEX
  5
516
  8
R2V
 62
     0
 10
1554.0
 20
100.0
 30
0.0
 70
    32
  0
VERTEX
  5
517
  8
R2V
 62
     0
 10
1543.0
 20
98.0
 30
0.0
 70
    32
  0
VERTEX
  5
518
  8
R2V
 62
     0
 10
1538.0
 20
91.0
 30
0.0
 70
    32
  0
VERTEX
  5
519
  8
R2V
 62
     0
 10
1539.0
 20
79.0
 30
0.0
 70
    32
  0
VERTEX
  5
51A
  8
R2V
 62
     0
 10
1546.0
 20
73.0
 30
0.0
 70
    32
  0
SEQEND
  5
51B
  8
R2V
 62
     0
  0
POLYLINE
  5
51C
  8
R2V
 62
     0
 66
     1
 10
0.0
 20
0.0
 30
0.0
 70
     8
  0
VERTEX
  5
51D
  8
R2V
 62
     0
 10
1642.0
 20
73.0
 30
0.0
 70
    32
  0
VERTEX
  5
51E
  8
R2V
 62
     0
 10
1656.0
 20
75.0
 30
0.0
 70
    32
  0
VERTEX
  5
51F
  8
R2V
 62
     0
 10
1658.0
 20
81.0
 30
0.0
 70
    32
  0
VERTEX
  5
520
  8
R2V
 62
     0
 10
1649.0
 20
87.0
 30
0.0
 70
    32
  0
VERTEX
  5
521
  8
R2V
 62
     0
 10
1638.0
 20
91.0
 30
0.0
 70
    32
  0
VERTEX
  5
522
  8
R2V
 62
     0
 10
1636.0
 20
96.0
 30
0.0
 70
    32
  0
VERTEX
  5
523
  8
R2V
 62
     0
 10
1642.0
 20
100.0
 30
0.0
 70
    32
  0
VERTEX
  5
524
  8
R2V
 62
     0
 10
1652.0
 20
100.0
 30
0.0
 70
    32
  0
VERTEX
  5
525
  8
R2V
 62
     0
 10
1658.0
 20
96.0
 30
0.0
 70
    32
  0
SEQEND
  5
526
  8
R2V
 62
     0
  0
POLYLINE
  5
527
  8
R2V
 62
     0
 66
     1
 10
0.0
 20
0.0
 30
0.0
 70
     8
  0
VERTEX
  5
528
  8
R2V
 62
     0
 10
1642.0
 20
73.0
 30
0.0
 70
    32
  0
VERTEX
  5
529
  8
R2V
 62
     0
 10
1641.0
 20
74.0
 30
0.0
 70
    32
  0
VERTEX
  5
52A
  8
R2V
 62
     0
 10
1639.0
 20
74.0
 30
0.0
 70
    32
  0
VERTEX
  5
52B
  8
R2V
 62
     0
 10
1638.0
 20
75.0
 30
0.0
 70
    32
  0
VERTEX
  5
52C
  8
R2V
 62
     0
 10
1637.0
 20
76.0
 30
0.0
 70
    32
  0
SEQEND
  5
52D
  8
R2V
 62
     0
  0
POLYLINE
  5
52E
  8
R2V
 62
     0
 66
     1
 10
0.0
 20
0.0
 30
0.0
 70
     8
  0
VERTEX
  5
52F
  8
R2V
 62
     0
 10
961.0
 20
113.0
 30
0.0
 70
    32
  0
VERTEX
  5
530
  8
R2V
 62
     0
 10
962.0
 20
139.0
 30
0.0
 70
    32
  0
VERTEX
  5
531
  8
R2V
 62
     0
 10
983.0
 20
114.0
 30
0.0
 70
    32
  0
VERTEX
  5
532
  8
R2V
 62
     0
 10
983.0
 20
139.0
 30
0.0
 70
    32
  0
SEQEND
  5
533
  8
R2V
 62
     0
  0
POLYLINE
  5
534
  8
R2V
 62
     0
 66
     1
 10
0.0
 20
0.0
 30
0.0
 70
     8
  0
VERTEX
  5
535
  8
R2V
 62
     0
 10
1002.0
 20
113.0
 30
0.0
 70
    32
  0
VERTEX
  5
536
  8
R2V
 62
     0
 10
1013.0
 20
115.0
 30
0.0
 70
    32
  0
VERTEX
  5
537
  8
R2V
 62
     0
 10
1016.0
 20
117.0
 30
0.0
 70
    32
  0
VERTEX
  5
538
  8
R2V
 62
     0
 10
1014.0
 20
125.0
 30
0.0
 70
    32
  0
VERTEX
  5
539
  8
R2V
 62
     0
 10
996.0
 20
132.0
 30
0.0
 70
    32
  0
VERTEX
  5
53A
  8
R2V
 62
     0
 10
996.0
 20
137.0
 30
0.0
 70
    32
  0
VERTEX
  5
53B
  8
R2V
 62
     0
 10
1001.0
 20
140.0
 30
0.0
 70
    32
  0
VERTEX
  5
53C
  8
R2V
 62
     0
 10
1011.0
 20
140.0
 30
0.0
 70
    32
  0
VERTEX
  5
53D
  8
R2V
 62
     0
 10
1016.0
 20
136.0
 30
0.0
 70
    32
  0
SEQEND
  5
53E
  8
R2V
 62
     0
  0
POLYLINE
  5
53F
  8
R2V
 62
     0
 66
     1
 10
0.0
 20
0.0
 30
0.0
 70
     8
  0
VERTEX
  5
540
  8
R2V
 62
     0
 10
1002.0
 20
113.0
 30
0.0
 70
    32
  0
VERTEX
  5
541
  8
R2V
 62
     0
 10
1001.0
 20
114.0
 30
0.0
 70
    32
  0
VERTEX
  5
542
  8
R2V
 62
     0
 10
1000.0
 20
114.0
 30
0.0
 70
    32
  0
VERTEX
  5
543
  8
R2V
 62
     0
 10
999.0
 20
115.0
 30
0.0
 70
    32
  0
VERTEX
  5
544
  8
R2V
 62
     0
 10
998.0
 20
115.0
 30
0.0
 70
    32
  0
VERTEX
  5
545
  8
R2V
 62
     0
 10
997.0
 20
116.0
 30
0.0
 70
    32
  0
VERTEX
  5
546
  8
R2V
 62
     0
 10
996.0
 20
116.0
 30
0.0
 70
    32
  0
SEQEND
  5
547
  8
R2V
 62
     0
  0
POLYLINE
  5
548
  8
R2V
 62
     0
 66
     1
 10
0.0
 20
0.0
 30
0.0
 70
     8
  0
VERTEX
  5
549
  8
R2V
 62
     0
 10
1067.0
 20
113.0
 30
0.0
 70
    32
  0
VERTEX
  5
54A
  8
R2V
 62
     0
 10
1076.0
 20
115.0
 30
0.0
 70
    32
  0
VERTEX
  5
54B
  8
R2V
 62
     0
 10
1081.0
 20
119.0
 30
0.0
 70
    32
  0
VERTEX
  5
54C
  8
R2V
 62
     0
 10
1083.0
 20
130.0
 30
0.0
 70
    32
  0
VERTEX
  5
54D
  8
R2V
 62
     0
 10
1076.0
 20
139.0
 30
0.0
 70
    32
  0
VERTEX
  5
54E
  8
R2V
 62
     0
 10
1064.0
 20
139.0
 30
0.0
 70
    32
  0
VERTEX
  5
54F
  8
R2V
 62
     0
 10
1058.0
 20
131.0
 30
0.0
 70
    32
  0
VERTEX
  5
550
  8
R2V
 62
     0
 10
1060.0
 20
119.0
 30
0.0
 70
    32
  0
VERTEX
  5
551
  8
R2V
 62
     0
 10
1067.0
 20
113.0
 30
0.0
 70
    32
  0
SEQEND
  5
552
  8
R2V
 62
     0
  0
POLYLINE
  5
553
  8
R2V
 62
     0
 66
     1
 10
0.0
 20
0.0
 30
0.0
 70
     8
  0
VERTEX
  5
554
  8
R2V
 62
     0
 10
1213.0
 20
113.0
 30
0.0
 70
    32
  0
VERTEX
  5
555
  8
R2V
 62
     0
 10
1213.0
 20
139.0
 30
0.0
 70
    32
  0
SEQEND
  5
556
  8
R2V
 62
     0
  0
POLYLINE
  5
557
  8
R2V
 62
     0
 66
     1
 10
0.0
 20
0.0
 30
0.0
 70
     8
  0
VERTEX
  5
558
  8
R2V
 62
     0
 10
1235.0
 20
113.0
 30
0.0
 70
    32
  0
VERTEX
  5
559
  8
R2V
 62
     0
 10
1244.0
 20
115.0
 30
0.0
 70
    32
  0
VERTEX
  5
55A
  8
R2V
 62
     0
 10
1249.0
 20
120.0
 30
0.0
 70
    32
  0
VERTEX
  5
55B
  8
R2V
 62
     0
 10
1249.0
 20
134.0
 30
0.0
 70
    32
  0
VERTEX
  5
55C
  8
R2V
 62
     0
 10
1242.0
 20
140.0
 30
0.0
 70
    32
  0
VERTEX
  5
55D
  8
R2V
 62
     0
 10
1231.0
 20
138.0
 30
0.0
 70
    32
  0
VERTEX
  5
55E
  8
R2V
 62
     0
 10
1226.0
 20
132.0
 30
0.0
 70
    32
  0
VERTEX
  5
55F
  8
R2V
 62
     0
 10
1227.0
 20
120.0
 30
0.0
 70
    32
  0
VERTEX
  5
560
  8
R2V
 62
     0
 10
1235.0
 20
113.0
 30
0.0
 70
    32
  0
SEQEND
  5
561
  8
R2V
 62
     0
  0
POLYLINE
  5
562
  8
R2V
 62
     0
 66
     1
 10
0.0
 20
0.0
 30
0.0
 70
     8
  0
VERTEX
  5
563
  8
R2V
 62
     0
 10
1259.0
 20
113.0
 30
0.0
 70
    32
  0
VERTEX
  5
564
  8
R2V
 62
     0
 10
1260.0
 20
139.0
 30
0.0
 70
    32
  0
VERTEX
  5
565
  8
R2V
 62
     0
 10
1281.0
 20
114.0
 30
0.0
 70
    32
  0
VERTEX
  5
566
  8
R2V
 62
     0
 10
1281.0
 20
139.0
 30
0.0
 70
    32
  0
SEQEND
  5
567
  8
R2V
 62
     0
  0
POLYLINE
  5
568
  8
R2V
 62
     0
 66
     1
 10
0.0
 20
0.0
 30
0.0
 70
     8
  0
VERTEX
  5
569
  8
R2V
 62
     0
 10
1323.0
 20
113.0
 30
0.0
 70
    32
  0
VERTEX
  5
56A
  8
R2V
 62
     0
 10
1323.0
 20
140.0
 30
0.0
 70
    32
  0
VERTEX
  5
56B
  8
R2V
 62
     0
 10
1335.0
 20
140.0
 30
0.0
 70
    32
  0
VERTEX
  5
56C
  8
R2V
 62
     0
 10
1344.0
 20
131.0
 30
0.0
 70
    32
  0
VERTEX
  5
56D
  8
R2V
 62
     0
 10
1342.0
 20
118.0
 30
0.0
 70
    32
  0
VERTEX
  5
56E
  8
R2V
 62
     0
 10
1334.0
 20
113.0
 30
0.0
 70
    32
  0
VERTEX
  5
56F
  8
R2V
 62
     0
 10
1323.0
 20
113.0
 30
0.0
 70
    32
  0
SEQEND
  5
570
  8
R2V
 62
     0
  0
POLYLINE
  5
571
  8
R2V
 62
     0
 66
     1
 10
0.0
 20
0.0
 30
0.0
 70
     8
  0
VERTEX
  5
572
  8
R2V
 62
     0
 10
1355.0
 20
113.0
 30
0.0
 70
    32
  0
VERTEX
  5
573
  8
R2V
 62
     0
 10
1355.0
 20
139.0
 30
0.0
 70
    32
  0
SEQEND
  5
574
  8
R2V
 62
     0
  0
POLYLINE
  5
575
  8
R2V
 62
     0
 66
     1
 10
0.0
 20
0.0
 30
0.0
 70
     8
  0
VERTEX
  5
576
  8
R2V
 62
     0
 10
1398.0
 20
113.0
 30
0.0
 70
    32
  0
VERTEX
  5
577
  8
R2V
 62
     0
 10
1398.0
 20
139.0
 30
0.0
 70
    32
  0
SEQEND
  5
578
  8
R2V
 62
     0
  0
POLYLINE
  5
579
  8
R2V
 62
     0
 66
     1
 10
0.0
 20
0.0
 30
0.0
 70
     8
  0
VERTEX
  5
57A
  8
R2V
 62
     0
 10
1417.0
 20
113.0
 30
0.0
 70
    32
  0
VERTEX
  5
57B
  8
R2V
 62
     0
 10
1429.0
 20
115.0
 30
0.0
 70
    32
  0
VERTEX
  5
57C
  8
R2V
 62
     0
 10
1432.0
 20
117.0
 30
0.0
 70
    32
  0
VERTEX
  5
57D
  8
R2V
 62
     0
 10
1429.0
 20
125.0
 30
0.0
 70
    32
  0
VERTEX
  5
57E
  8
R2V
 62
     0
 10
1411.0
 20
132.0
 30
0.0
 70
    32
  0
VERTEX
  5
57F
  8
R2V
 62
     0
 10
1411.0
 20
137.0
 30
0.0
 70
    32
  0
VERTEX
  5
580
  8
R2V
 62
     0
 10
1416.0
 20
140.0
 30
0.0
 70
    32
  0
VERTEX
  5
581
  8
R2V
 62
     0
 10
1426.0
 20
140.0
 30
0.0
 70
    32
  0
VERTEX
  5
582
  8
R2V
 62
     0
 10
1432.0
 20
136.0
 30
0.0
 70
    32
  0
SEQEND
  5
583
  8
R2V
 62
     0
  0
POLYLINE
  5
584
  8
R2V
 62
     0
 66
     1
 10
0.0
 20
0.0
 30
0.0
 70
     8
  0
VERTEX
  5
585
  8
R2V
 62
     0
 10
1417.0
 20
113.0
 30
0.0
 70
    32
  0
VERTEX
  5
586
  8
R2V
 62
     0
 10
1416.0
 20
114.0
 30
0.0
 70
    32
  0
VERTEX
  5
587
  8
R2V
 62
     0
 10
1415.0
 20
114.0
 30
0.0
 70
    32
  0
VERTEX
  5
588
  8
R2V
 62
     0
 10
1414.0
 20
115.0
 30
0.0
 70
    32
  0
VERTEX
  5
589
  8
R2V
 62
     0
 10
1413.0
 20
115.0
 30
0.0
 70
    32
  0
VERTEX
  5
58A
  8
R2V
 62
     0
 10
1412.0
 20
116.0
 30
0.0
 70
    32
  0
VERTEX
  5
58B
  8
R2V
 62
     0
 10
1411.0
 20
116.0
 30
0.0
 70
    32
  0
SEQEND
  5
58C
  8
R2V
 62
     0
  0
POLYLINE
  5
58D
  8
R2V
 62
     0
 66
     1
 10
0.0
 20
0.0
 30
0.0
 70
     8
  0
VERTEX
  5
58E
  8
R2V
 62
     0
 10
1441.0
 20
113.0
 30
0.0
 70
    32
  0
VERTEX
  5
58F
  8
R2V
 62
     0
 10
1441.0
 20
139.0
 30
0.0
 70
    32
  0
SEQEND
  5
590
  8
R2V
 62
     0
  0
POLYLINE
  5
591
  8
R2V
 62
     0
 66
     1
 10
0.0
 20
0.0
 30
0.0
 70
     8
  0
VERTEX
  5
592
  8
R2V
 62
     0
 10
1463.0
 20
113.0
 30
0.0
 70
    32
  0
VERTEX
  5
593
  8
R2V
 62
     0
 10
1472.0
 20
115.0
 30
0.0
 70
    32
  0
VERTEX
  5
594
  8
R2V
 62
     0
 10
1478.0
 20
124.0
 30
0.0
 70
    32
  0
VERTEX
  5
595
  8
R2V
 62
     0
 10
1476.0
 20
134.0
 30
0.0
 70
    32
  0
VERTEX
  5
596
  8
R2V
 62
     0
 10
1470.0
 20
140.0
 30
0.0
 70
    32
  0
VERTEX
  5
597
  8
R2V
 62
     0
 10
1458.0
 20
138.0
 30
0.0
 70
    32
  0
VERTEX
  5
598
  8
R2V
 62
     0
 10
1453.0
 20
131.0
 30
0.0
 70
    32
  0
VERTEX
  5
599
  8
R2V
 62
     0
 10
1455.0
 20
119.0
 30
0.0
 70
    32
  0
VERTEX
  5
59A
  8
R2V
 62
     0
 10
1463.0
 20
113.0
 30
0.0
 70
    32
  0
SEQEND
  5
59B
  8
R2V
 62
     0
  0
POLYLINE
  5
59C
  8
R2V
 62
     0
 66
     1
 10
0.0
 20
0.0
 30
0.0
 70
     8
  0
VERTEX
  5
59D
  8
R2V
 62
     0
 10
1487.0
 20
113.0
 30
0.0
 70
    32
  0
VERTEX
  5
59E
  8
R2V
 62
     0
 10
1488.0
 20
139.0
 30
0.0
 70
    32
  0
VERTEX
  5
59F
  8
R2V
 62
     0
 10
1509.0
 20
114.0
 30
0.0
 70
    32
  0
VERTEX
  5
5A0
  8
R2V
 62
     0
 10
1509.0
 20
139.0
 30
0.0
 70
    32
  0
SEQEND
  5
5A1
  8
R2V
 62
     0
  0
POLYLINE
  5
5A2
  8
R2V
 62
     0
 66
     1
 10
0.0
 20
0.0
 30
0.0
 70
     8
  0
VERTEX
  5
5A3
  8
R2V
 62
     0
 10
1045.0
 20
154.0
 30
0.0
 70
    32
  0
VERTEX
  5
5A4
  8
R2V
 62
     0
 10
1045.0
 20
193.0
 30
0.0
 70
    32
  0
VERTEX
  5
5A5
  8
R2V
 62
     0
 10
1175.0
 20
199.0
 30
0.0
 70
    32
  0
VERTEX
  5
5A6
  8
R2V
 62
     0
 10
1207.0
 20
212.0
 30
0.0
 70
    32
  0
VERTEX
  5
5A7
  8
R2V
 62
     0
 10
1244.0
 20
253.0
 30
0.0
 70
    32
  0
VERTEX
  5
5A8
  8
R2V
 62
     0
 10
1352.0
 20
198.0
 30
0.0
 70
    32
  0
VERTEX
  5
5A9
  8
R2V
 62
     0
 10
1377.0
 20
199.0
 30
0.0
 70
    32
  0
VERTEX
  5
5AA
  8
R2V
 62
     0
 10
1377.0
 20
155.0
 30
0.0
 70
    32
  0
SEQEND
  5
5AB
  8
R2V
 62
     0
  0
POLYLINE
  5
5AC
  8
R2V
 62
     0
 66
     1
 10
0.0
 20
0.0
 30
0.0
 70
     8
  0
VERTEX
  5
5AD
  8
R2V
 62
     0
 10
1445.0
 20
155.0
 30
0.0
 70
    32
  0
VERTEX
  5
5AE
  8
R2V
 62
     0
 10
1445.0
 20
197.0
 30
0.0
 70
    32
  0
VERTEX
  5
5AF
  8
R2V
 62
     0
 10
1776.0
 20
197.0
 30
0.0
 70
    32
  0
VERTEX
  5
5B0
  8
R2V
 62
     0
 10
1776.0
 20
156.0
 30
0.0
 70
    32
  0
SEQEND
  5
5B1
  8
R2V
 62
     0
  0
POLYLINE
  5
5B2
  8
R2V
 62
     0
 66
     1
 10
0.0
 20
0.0
 30
0.0
 70
     8
  0
VERTEX
  5
5B3
  8
R2V
 62
     0
 10
1833.0
 20
155.0
 30
0.0
 70
    32
  0
VERTEX
  5
5B4
  8
R2V
 62
     0
 10
1833.0
 20
174.0
 30
0.0
 70
    32
  0
VERTEX
  5
5B5
  8
R2V
 62
     0
 10
2120.0
 20
174.0
 30
0.0
 70
    32
  0
SEQEND
  5
5B6
  8
R2V
 62
     0
  0
POLYLINE
  5
5B7
  8
R2V
 62
     0
 66
     1
 10
0.0
 20
0.0
 30
0.0
 70
     8
  0
VERTEX
  5
5B8
  8
R2V
 62
     0
 10
712.0
 20
163.0
 30
0.0
 70
    32
  0
VERTEX
  5
5B9
  8
R2V
 62
     0
 10
744.0
 20
452.0
 30
0.0
 70
    32
  0
SEQEND
  5
5BA
  8
R2V
 62
     0
  0
POLYLINE
  5
5BB
  8
R2V
 62
     0
 66
     1
 10
0.0
 20
0.0
 30
0.0
 70
     8
  0
VERTEX
  5
5BC
  8
R2V
 62
     0
 10
734.0
 20
168.0
 30
0.0
 70
    32
  0
VERTEX
  5
5BD
  8
R2V
 62
     0
 10
758.0
 20
385.0
 30
0.0
 70
    32
  0
SEQEND
  5
5BE
  8
R2V
 62
     0
  0
POLYLINE
  5
5BF
  8
R2V
 62
     0
 66
     1
 10
0.0
 20
0.0
 30
0.0
 70
     8
  0
VERTEX
  5
5C0
  8
R2V
 62
     0
 10
766.0
 20
173.0
 30
0.0
 70
    32
  0
VERTEX
  5
5C1
  8
R2V
 62
     0
 10
770.0
 20
239.0
 30
0.0
 70
    32
  0
SEQEND
  5
5C2
  8
R2V
 62
     0
  0
POLYLINE
  5
5C3
  8
R2V
 62
     0
 66
     1
 10
0.0
 20
0.0
 30
0.0
 70
     8
  0
VERTEX
  5
5C4
  8
R2V
 62
     0
 10
2062.0
 20
224.0
 30
0.0
 70
    32
  0
VERTEX
  5
5C5
  8
R2V
 62
     0
 10
2060.0
 20
421.0
 30
0.0
 70
    32
  0
VERTEX
  5
5C6
  8
R2V
 62
     0
 10
2026.0
 20
458.0
 30
0.0
 70
    32
  0
VERTEX
  5
5C7
  8
R2V
 62
     0
 10
2017.0
 20
473.0
 30
0.0
 70
    32
  0
VERTEX
  5
5C8
  8
R2V
 62
     0
 10
2021.0
 20
501.0
 30
0.0
 70
    32
  0
VERTEX
  5
5C9
  8
R2V
 62
     0
 10
2085.0
 20
610.0
 30
0.0
 70
    32
  0
VERTEX
  5
5CA
  8
R2V
 62
     0
 10
2120.0
 20
588.0
 30
0.0
 70
    32
  0
SEQEND
  5
5CB
  8
R2V
 62
     0
  0
POLYLINE
  5
5CC
  8
R2V
 62
     0
 66
     1
 10
0.0
 20
0.0
 30
0.0
 70
     8
  0
VERTEX
  5
5CD
  8
R2V
 62
     0
 10
2062.0
 20
224.0
 30
0.0
 70
    32
  0
VERTEX
  5
5CE
  8
R2V
 62
     0
 10
2121.0
 20
224.0
 30
0.0
 70
    32
  0
SEQEND
  5
5CF
  8
R2V
 62
     0
  0
POLYLINE
  5
5D0
  8
R2V
 62
     0
 66
     1
 10
0.0
 20
0.0
 30
0.0
 70
     8
  0
VERTEX
  5
5D1
  8
R2V
 62
     0
 10
1836.0
 20
226.0
 30
0.0
 70
    32
  0
VERTEX
  5
5D2
  8
R2V
 62
     0
 10
1833.0
 20
457.0
 30
0.0
 70
    32
  0
VERTEX
  5
5D3
  8
R2V
 62
     0
 10
1843.0
 20
468.0
 30
0.0
 70
    32
  0
VERTEX
  5
5D4
  8
R2V
 62
     0
 10
1851.0
 20
468.0
 30
0.0
 70
    32
  0
VERTEX
  5
5D5
  8
R2V
 62
     0
 10
1948.0
 20
406.0
 30
0.0
 70
    32
  0
VERTEX
  5
5D6
  8
R2V
 62
     0
 10
1983.0
 20
406.0
 30
0.0
 70
    32
  0
VERTEX
  5
5D7
  8
R2V
 62
     0
 10
2019.0
 20
405.0
 30
0.0
 70
    32
  0
VERTEX
  5
5D8
  8
R2V
 62
     0
 10
2016.0
 20
226.0
 30
0.0
 70
    32
  0
VERTEX
  5
5D9
  8
R2V
 62
     0
 10
1836.0
 20
226.0
 30
0.0
 70
    32
  0
SEQEND
  5
5DA
  8
R2V
 62
     0
  0
POLYLINE
  5
5DB
  8
R2V
 62
     0
 66
     1
 10
0.0
 20
0.0
 30
0.0
 70
     8
  0
VERTEX
  5
5DC
  8
R2V
 62
     0
 10
833.0
 20
237.0
 30
0.0
 70
    32
  0
VERTEX
  5
5DD
  8
R2V
 62
     0
 10
833.0
 20
360.0
 30
0.0
 70
    32
  0
VERTEX
  5
5DE
  8
R2V
 62
     0
 10
839.0
 20
379.0
 30
0.0
 70
    32
  0
VERTEX
  5
5DF
  8
R2V
 62
     0
 10
850.0
 20
385.0
 30
0.0
 70
    32
  0
VERTEX
  5
5E0
  8
R2V
 62
     0
 10
975.0
 20
385.0
 30
0.0
 70
    32
  0
VERTEX
  5
5E1
  8
R2V
 62
     0
 10
1014.0
 20
370.0
 30
0.0
 70
    32
  0
VERTEX
  5
5E2
  8
R2V
 62
     0
 10
973.0
 20
287.0
 30
0.0
 70
    32
  0
VERTEX
  5
5E3
  8
R2V
 62
     0
 10
974.0
 20
241.0
 30
0.0
 70
    32
  0
VERTEX
  5
5E4
  8
R2V
 62
     0
 10
833.0
 20
237.0
 30
0.0
 70
    32
  0
SEQEND
  5
5E5
  8
R2V
 62
     0
  0
POLYLINE
  5
5E6
  8
R2V
 62
     0
 66
     1
 10
0.0
 20
0.0
 30
0.0
 70
     8
  0
VERTEX
  5
5E7
  8
R2V
 62
     0
 10
1104.0
 20
238.0
 30
0.0
 70
    32
  0
VERTEX
  5
5E8
  8
R2V
 62
     0
 10
1163.0
 20
239.0
 30
0.0
 70
    32
  0
VERTEX
  5
5E9
  8
R2V
 62
     0
 10
1185.0
 20
246.0
 30
0.0
 70
    32
  0
VERTEX
  5
5EA
  8
R2V
 62
     0
 10
1202.0
 20
271.0
 30
0.0
 70
    32
  0
VERTEX
  5
5EB
  8
R2V
 62
     0
 10
1070.0
 20
349.0
 30
0.0
 70
    32
  0
VERTEX
  5
5EC
  8
R2V
 62
     0
 10
1047.0
 20
314.0
 30
0.0
 70
    32
  0
VERTEX
  5
5ED
  8
R2V
 62
     0
 10
1048.0
 20
239.0
 30
0.0
 70
    32
  0
VERTEX
  5
5EE
  8
R2V
 62
     0
 10
1103.0
 20
239.0
 30
0.0
 70
    32
  0
VERTEX
  5
5EF
  8
R2V
 62
     0
 10
1104.0
 20
238.0
 30
0.0
 70
    32
  0
SEQEND
  5
5F0
  8
R2V
 62
     0
  0
POLYLINE
  5
5F1
  8
R2V
 62
     0
 66
     1
 10
0.0
 20
0.0
 30
0.0
 70
     8
  0
VERTEX
  5
5F2
  8
R2V
 62
     0
 10
241.0
 20
239.0
 30
0.0
 70
    32
  0
VERTEX
  5
5F3
  8
R2V
 62
     0
 10
239.0
 20
362.0
 30
0.0
 70
    32
  0
VERTEX
  5
5F4
  8
R2V
 62
     0
 10
258.0
 20
398.0
 30
0.0
 70
    32
  0
VERTEX
  5
5F5
  8
R2V
 62
     0
 10
307.0
 20
383.0
 30
0.0
 70
    32
  0
VERTEX
  5
5F6
  8
R2V
 62
     0
 10
390.0
 20
384.0
 30
0.0
 70
    32
  0
VERTEX
  5
5F7
  8
R2V
 62
     0
 10
390.0
 20
239.0
 30
0.0
 70
    32
  0
VERTEX
  5
5F8
  8
R2V
 62
     0
 10
241.0
 20
239.0
 30
0.0
 70
    32
  0
SEQEND
  5
5F9
  8
R2V
 62
     0
  0
POLYLINE
  5
5FA
  8
R2V
 62
     0
 66
     1
 10
0.0
 20
0.0
 30
0.0
 70
     8
  0
VERTEX
  5
5FB
  8
R2V
 62
     0
 10
1681.0
 20
239.0
 30
0.0
 70
    32
  0
VERTEX
  5
5FC
  8
R2V
 62
     0
 10
1706.0
 20
239.0
 30
0.0
 70
    32
  0
VERTEX
  5
5FD
  8
R2V
 62
     0
 10
1707.0
 20
251.0
 30
0.0
 70
    32
  0
VERTEX
  5
5FE
  8
R2V
 62
     0
 10
1698.0
 20
270.0
 30
0.0
 70
    32
  0
VERTEX
  5
5FF
  8
R2V
 62
     0
 10
1650.0
 20
303.0
 30
0.0
 70
    32
  0
VERTEX
  5
600
  8
R2V
 62
     0
 10
1512.0
 20
389.0
 30
0.0
 70
    32
  0
VERTEX
  5
601
  8
R2V
 62
     0
 10
1454.0
 20
244.0
 30
0.0
 70
    32
  0
VERTEX
  5
602
  8
R2V
 62
     0
 10
1479.0
 20
244.0
 30
0.0
 70
    32
  0
VERTEX
  5
603
  8
R2V
 62
     0
 10
1681.0
 20
239.0
 30
0.0
 70
    32
  0
SEQEND
  5
604
  8
R2V
 62
     0
  0
POLYLINE
  5
605
  8
R2V
 62
     0
 66
     1
 10
0.0
 20
0.0
 30
0.0
 70
     8
  0
VERTEX
  5
606
  8
R2V
 62
     0
 10
1775.0
 20
241.0
 30
0.0
 70
    32
  0
VERTEX
  5
607
  8
R2V
 62
     0
 10
1777.0
 20
241.0
 30
0.0
 70
    32
  0
VERTEX
  5
608
  8
R2V
 62
     0
 10
1779.0
 20
470.0
 30
0.0
 70
    32
  0
VERTEX
  5
609
  8
R2V
 62
     0
 10
1746.0
 20
522.0
 30
0.0
 70
    32
  0
VERTEX
  5
60A
  8
R2V
 62
     0
 10
1650.0
 20
360.0
 30
0.0
 70
    32
  0
VERTEX
  5
60B
  8
R2V
 62
     0
 10
1707.0
 20
330.0
 30
0.0
 70
    32
  0
VERTEX
  5
60C
  8
R2V
 62
     0
 10
1733.0
 20
308.0
 30
0.0
 70
    32
  0
VERTEX
  5
60D
  8
R2V
 62
     0
 10
1746.0
 20
277.0
 30
0.0
 70
    32
  0
VERTEX
  5
60E
  8
R2V
 62
     0
 10
1751.0
 20
246.0
 30
0.0
 70
    32
  0
VERTEX
  5
60F
  8
R2V
 62
     0
 10
1753.0
 20
246.0
 30
0.0
 70
    32
  0
VERTEX
  5
610
  8
R2V
 62
     0
 10
1775.0
 20
241.0
 30
0.0
 70
    32
  0
SEQEND
  5
611
  8
R2V
 62
     0
  0
POLYLINE
  5
612
  8
R2V
 62
     0
 66
     1
 10
0.0
 20
0.0
 30
0.0
 70
     8
  0
VERTEX
  5
613
  8
R2V
 62
     0
 10
1375.0
 20
263.0
 30
0.0
 70
    32
  0
VERTEX
  5
614
  8
R2V
 62
     0
 10
1379.0
 20
462.0
 30
0.0
 70
    32
  0
VERTEX
  5
615
  8
R2V
 62
     0
 10
1195.0
 20
567.0
 30
0.0
 70
    32
  0
VERTEX
  5
616
  8
R2V
 62
     0
 10
1102.0
 20
406.0
 30
0.0
 70
    32
  0
VERTEX
  5
617
  8
R2V
 62
     0
 10
1268.0
 20
311.0
 30
0.0
 70
    32
  0
VERTEX
  5
618
  8
R2V
 62
     0
 10
1269.0
 20
379.0
 30
0.0
 70
    32
  0
VERTEX
  5
619
  8
R2V
 62
     0
 10
1284.0
 20
398.0
 30
0.0
 70
    32
  0
VERTEX
  5
61A
  8
R2V
 62
     0
 10
1310.0
 20
383.0
 30
0.0
 70
    32
  0
VERTEX
  5
61B
  8
R2V
 62
     0
 10
1302.0
 20
368.0
 30
0.0
 70
    32
  0
VERTEX
  5
61C
  8
R2V
 62
     0
 10
1305.0
 20
294.0
 30
0.0
 70
    32
  0
VERTEX
  5
61D
  8
R2V
 62
     0
 10
1375.0
 20
263.0
 30
0.0
 70
    32
  0
SEQEND
  5
61E
  8
R2V
 62
     0
  0
POLYLINE
  5
61F
  8
R2V
 62
     0
 66
     1
 10
0.0
 20
0.0
 30
0.0
 70
     8
  0
VERTEX
  5
620
  8
R2V
 62
     0
 10
769.0
 20
344.0
 30
0.0
 70
    32
  0
VERTEX
  5
621
  8
R2V
 62
     0
 10
770.0
 20
357.0
 30
0.0
 70
    32
  0
VERTEX
  5
622
  8
R2V
 62
     0
 10
755.0
 20
446.0
 30
0.0
 70
    32
  0
VERTEX
  5
623
  8
R2V
 62
     0
 10
712.0
 20
522.0
 30
0.0
 70
    32
  0
VERTEX
  5
624
  8
R2V
 62
     0
 10
698.0
 20
522.0
 30
0.0
 70
    32
  0
SEQEND
  5
625
  8
R2V
 62
     0
  0
POLYLINE
  5
626
  8
R2V
 62
     0
 66
     1
 10
0.0
 20
0.0
 30
0.0
 70
     8
  0
VERTEX
  5
627
  8
R2V
 62
     0
 10
1597.0
 20
383.0
 30
0.0
 70
    32
  0
VERTEX
  5
628
  8
R2V
 62
     0
 10
1698.0
 20
553.0
 30
0.0
 70
    32
  0
VERTEX
  5
629
  8
R2V
 62
     0
 10
1528.0
 20
653.0
 30
0.0
 70
    32
  0
VERTEX
  5
62A
  8
R2V
 62
     0
 10
1427.0
 20
483.0
 30
0.0
 70
    32
  0
VERTEX
  5
62B
  8
R2V
 62
     0
 10
1597.0
 20
383.0
 30
0.0
 70
    32
  0
SEQEND
  5
62C
  8
R2V
 62
     0
  0
POLYLINE
  5
62D
  8
R2V
 62
     0
 66
     1
 10
0.0
 20
0.0
 30
0.0
 70
     8
  0
VERTEX
  5
62E
  8
R2V
 62
     0
 10
361.0
 20
421.0
 30
0.0
 70
    32
  0
VERTEX
  5
62F
  8
R2V
 62
     0
 10
388.0
 20
425.0
 30
0.0
 70
    32
  0
VERTEX
  5
630
  8
R2V
 62
     0
 10
396.0
 20
427.0
 30
0.0
 70
    32
  0
VERTEX
  5
631
  8
R2V
 62
     0
 10
395.0
 20
445.0
 30
0.0
 70
    32
  0
VERTEX
  5
632
  8
R2V
 62
     0
 10
283.0
 20
500.0
 30
0.0
 70
    32
  0
VERTEX
  5
633
  8
R2V
 62
     0
 10
251.0
 20
435.0
 30
0.0
 70
    32
  0
VERTEX
  5
634
  8
R2V
 62
     0
 10
254.0
 20
435.0
 30
0.0
 70
    32
  0
VERTEX
  5
635
  8
R2V
 62
     0
 10
319.0
 20
424.0
 30
0.0
 70
    32
  0
VERTEX
  5
636
  8
R2V
 62
     0
 10
332.0
 20
424.0
 30
0.0
 70
    32
  0
VERTEX
  5
637
  8
R2V
 62
     0
 10
361.0
 20
421.0
 30
0.0
 70
    32
  0
SEQEND
  5
638
  8
R2V
 62
     0
  0
POLYLINE
  5
639
  8
R2V
 62
     0
 66
     1
 10
0.0
 20
0.0
 30
0.0
 70
     8
  0
VERTEX
  5
63A
  8
R2V
 62
     0
 10
1057.0
 20
451.0
 30
0.0
 70
    32
  0
VERTEX
  5
63B
  8
R2V
 62
     0
 10
1061.0
 20
453.0
 30
0.0
 70
    32
  0
VERTEX
  5
63C
  8
R2V
 62
     0
 10
1137.0
 20
589.0
 30
0.0
 70
    32
  0
VERTEX
  5
63D
  8
R2V
 62
     0
 10
974.0
 20
688.0
 30
0.0
 70
    32
  0
VERTEX
  5
63E
  8
R2V
 62
     0
 10
876.0
 20
518.0
 30
0.0
 70
    32
  0
VERTEX
  5
63F
  8
R2V
 62
     0
 10
952.0
 20
474.0
 30
0.0
 70
    32
  0
VERTEX
  5
640
  8
R2V
 62
     0
 10
954.0
 20
474.0
 30
0.0
 70
    32
  0
VERTEX
  5
641
  8
R2V
 62
     0
 10
1005.0
 20
458.0
 30
0.0
 70
    32
  0
VERTEX
  5
642
  8
R2V
 62
     0
 10
1012.0
 20
458.0
 30
0.0
 70
    32
  0
VERTEX
  5
643
  8
R2V
 62
     0
 10
1057.0
 20
451.0
 30
0.0
 70
    32
  0
SEQEND
  5
644
  8
R2V
 62
     0
  0
POLYLINE
  5
645
  8
R2V
 62
     0
 66
     1
 10
0.0
 20
0.0
 30
0.0
 70
     8
  0
VERTEX
  5
646
  8
R2V
 62
     0
 10
1949.0
 20
474.0
 30
0.0
 70
    32
  0
VERTEX
  5
647
  8
R2V
 62
     0
 10
2049.0
 20
644.0
 30
0.0
 70
    32
  0
VERTEX
  5
648
  8
R2V
 62
     0
 10
1879.0
 20
744.0
 30
0.0
 70
    32
  0
VERTEX
  5
649
  8
R2V
 62
     0
 10
1779.0
 20
574.0
 30
0.0
 70
    32
  0
VERTEX
  5
64A
  8
R2V
 62
     0
 10
1949.0
 20
474.0
 30
0.0
 70
    32
  0
SEQEND
  5
64B
  8
R2V
 62
     0
  0
POLYLINE
  5
64C
  8
R2V
 62
     0
 66
     1
 10
0.0
 20
0.0
 30
0.0
 70
     8
  0
VERTEX
  5
64D
  8
R2V
 62
     0
 10
1384.0
 20
507.0
 30
0.0
 70
    32
  0
VERTEX
  5
64E
  8
R2V
 62
     0
 10
1484.0
 20
677.0
 30
0.0
 70
    32
  0
VERTEX
  5
64F
  8
R2V
 62
     0
 10
1314.0
 20
777.0
 30
0.0
 70
    32
  0
VERTEX
  5
650
  8
R2V
 62
     0
 10
1213.0
 20
607.0
 30
0.0
 70
    32
  0
VERTEX
  5
651
  8
R2V
 62
     0
 10
1384.0
 20
507.0
 30
0.0
 70
    32
  0
SEQEND
  5
652
  8
R2V
 62
     0
  0
POLYLINE
  5
653
  8
R2V
 62
     0
 66
     1
 10
0.0
 20
0.0
 30
0.0
 70
     8
  0
VERTEX
  5
654
  8
R2V
 62
     0
 10
1010.0
 20
512.0
 30
0.0
 70
    32
  0
VERTEX
  5
655
  8
R2V
 62
     0
 10
1031.0
 20
513.0
 30
0.0
 70
    32
  0
VERTEX
  5
656
  8
R2V
 62
     0
 10
1051.0
 20
524.0
 30
0.0
 70
    32
  0
VERTEX
  5
657
  8
R2V
 62
     0
 10
1059.0
 20
533.0
 30
0.0
 70
    32
  0
VERTEX
  5
658
  8
R2V
 62
     0
 10
1067.0
 20
551.0
 30
0.0
 70
    32
  0
VERTEX
  5
659
  8
R2V
 62
     0
 10
1066.0
 20
572.0
 30
0.0
 70
    32
  0
VERTEX
  5
65A
  8
R2V
 62
     0
 10
1055.0
 20
592.0
 30
0.0
 70
    32
  0
VERTEX
  5
65B
  8
R2V
 62
     0
 10
1038.0
 20
605.0
 30
0.0
 70
    32
  0
VERTEX
  5
65C
  8
R2V
 62
     0
 10
1028.0
 20
608.0
 30
0.0
 70
    32
  0
VERTEX
  5
65D
  8
R2V
 62
     0
 10
1006.0
 20
607.0
 30
0.0
 70
    32
  0
VERTEX
  5
65E
  8
R2V
 62
     0
 10
986.0
 20
596.0
 30
0.0
 70
    32
  0
VERTEX
  5
65F
  8
R2V
 62
     0
 10
973.0
 20
576.0
 30
0.0
 70
    32
  0
VERTEX
  5
660
  8
R2V
 62
     0
 10
970.0
 20
558.0
 30
0.0
 70
    32
  0
VERTEX
  5
661
  8
R2V
 62
     0
 10
976.0
 20
538.0
 30
0.0
 70
    32
  0
VERTEX
  5
662
  8
R2V
 62
     0
 10
985.0
 20
526.0
 30
0.0
 70
    32
  0
VERTEX
  5
663
  8
R2V
 62
     0
 10
998.0
 20
516.0
 30
0.0
 70
    32
  0
VERTEX
  5
664
  8
R2V
 62
     0
 10
999.0
 20
516.0
 30
0.0
 70
    32
  0
VERTEX
  5
665
  8
R2V
 62
     0
 10
1010.0
 20
512.0
 30
0.0
 70
    32
  0
SEQEND
  5
666
  8
R2V
 62
     0
  0
POLYLINE
  5
667
  8
R2V
 62
     0
 66
     1
 10
0.0
 20
0.0
 30
0.0
 70
     8
  0
VERTEX
  5
668
  8
R2V
 62
     0
 10
1437.0
 20
542.0
 30
0.0
 70
    32
  0
VERTEX
  5
669
  8
R2V
 62
     0
 10
1472.0
 20
602.0
 30
0.0
 70
    32
  0
VERTEX
  5
66A
  8
R2V
 62
     0
 10
1479.0
 20
599.0
 30
0.0
 70
    32
  0
VERTEX
  5
66B
  8
R2V
 62
     0
 10
1484.0
 20
637.0
 30
0.0
 70
    32
  0
VERTEX
  5
66C
  8
R2V
 62
     0
 10
1453.0
 20
613.0
 30
0.0
 70
    32
  0
VERTEX
  5
66D
  8
R2V
 62
     0
 10
1458.0
 20
608.0
 30
0.0
 70
    32
  0
VERTEX
  5
66E
  8
R2V
 62
     0
 10
1424.0
 20
550.0
 30
0.0
 70
    32
  0
VERTEX
  5
66F
  8
R2V
 62
     0
 10
1437.0
 20
542.0
 30
0.0
 70
    32
  0
SEQEND
  5
670
  8
R2V
 62
     0
  0
POLYLINE
  5
671
  8
R2V
 62
     0
 66
     1
 10
0.0
 20
0.0
 30
0.0
 70
     8
  0
VERTEX
  5
672
  8
R2V
 62
     0
 10
1668.0
 20
595.0
 30
0.0
 70
    32
  0
VERTEX
  5
673
  8
R2V
 62
     0
 10
1675.0
 20
609.0
 30
0.0
 70
    32
  0
VERTEX
  5
674
  8
R2V
 62
     0
 10
1617.0
 20
643.0
 30
0.0
 70
    32
  0
VERTEX
  5
675
  8
R2V
 62
     0
 10
1620.0
 20
650.0
 30
0.0
 70
    32
  0
VERTEX
  5
676
  8
R2V
 62
     0
 10
1581.0
 20
655.0
 30
0.0
 70
    32
  0
VERTEX
  5
677
  8
R2V
 62
     0
 10
1605.0
 20
623.0
 30
0.0
 70
    32
  0
VERTEX
  5
678
  8
R2V
 62
     0
 10
1609.0
 20
630.0
 30
0.0
 70
    32
  0
VERTEX
  5
679
  8
R2V
 62
     0
 10
1668.0
 20
595.0
 30
0.0
 70
    32
  0
SEQEND
  5
67A
  8
R2V
 62
     0
  0
POLYLINE
  5
67B
  8
R2V
 62
     0
 66
     1
 10
0.0
 20
0.0
 30
0.0
 70
     8
  0
VERTEX
  5
67C
  8
R2V
 62
     0
 10
1722.0
 20
605.0
 30
0.0
 70
    32
  0
VERTEX
  5
67D
  8
R2V
 62
     0
 10
1822.0
 20
776.0
 30
0.0
 70
    32
  0
VERTEX
  5
67E
  8
R2V
 62
     0
 10
1652.0
 20
876.0
 30
0.0
 70
    32
  0
VERTEX
  5
67F
  8
R2V
 62
     0
 10
1552.0
 20
706.0
 30
0.0
 70
    32
  0
VERTEX
  5
680
  8
R2V
 62
     0
 10
1722.0
 20
605.0
 30
0.0
 70
    32
  0
SEQEND
  5
681
  8
R2V
 62
     0
  0
POLYLINE
  5
682
  8
R2V
 62
     0
 66
     1
 10
0.0
 20
0.0
 30
0.0
 70
     8
  0
VERTEX
  5
683
  8
R2V
 62
     0
 10
1170.0
 20
638.0
 30
0.0
 70
    32
  0
VERTEX
  5
684
  8
R2V
 62
     0
 10
1270.0
 20
808.0
 30
0.0
 70
    32
  0
VERTEX
  5
685
  8
R2V
 62
     0
 10
1100.0
 20
909.0
 30
0.0
 70
    32
  0
VERTEX
  5
686
  8
R2V
 62
     0
 10
1000.0
 20
739.0
 30
0.0
 70
    32
  0
VERTEX
  5
687
  8
R2V
 62
     0
 10
1170.0
 20
638.0
 30
0.0
 70
    32
  0
SEQEND
  5
688
  8
R2V
 62
     0
  0
POLYLINE
  5
689
  8
R2V
 62
     0
 66
     1
 10
0.0
 20
0.0
 30
0.0
 70
     8
  0
VERTEX
  5
68A
  8
R2V
 62
     0
 10
620.0
 20
643.0
 30
0.0
 70
    32
  0
VERTEX
  5
68B
  8
R2V
 62
     0
 10
626.0
 20
643.0
 30
0.0
 70
    32
  0
SEQEND
  5
68C
  8
R2V
 62
     0
  0
POLYLINE
  5
68D
  8
R2V
 62
     0
 66
     1
 10
0.0
 20
0.0
 30
0.0
 70
     8
  0
VERTEX
  5
68E
  8
R2V
 62
     0
 10
2119.0
 20
649.0
 30
0.0
 70
    32
  0
VERTEX
  5
68F
  8
R2V
 62
     0
 10
2120.0
 20
649.0
 30
0.0
 70
    32
  0
SEQEND
  5
690
  8
R2V
 62
     0
  0
POLYLINE
  5
691
  8
R2V
 62
     0
 66
     1
 10
0.0
 20
0.0
 30
0.0
 70
     8
  0
VERTEX
  5
692
  8
R2V
 62
     0
 10
2119.0
 20
649.0
 30
0.0
 70
    32
  0
VERTEX
  5
693
  8
R2V
 62
     0
 10
1899.0
 20
786.0
 30
0.0
 70
    32
  0
VERTEX
  5
694
  8
R2V
 62
     0
 10
1996.0
 20
953.0
 30
0.0
 70
    32
  0
VERTEX
  5
695
  8
R2V
 62
     0
 10
2121.0
 20
877.0
 30
0.0
 70
    32
  0
SEQEND
  5
696
  8
R2V
 62
     0
  0
POLYLINE
  5
697
  8
R2V
 62
     0
 66
     1
 10
0.0
 20
0.0
 30
0.0
 70
     8
  0
VERTEX
  5
698
  8
R2V
 62
     0
 10
1208.0
 20
657.0
 30
0.0
 70
    32
  0
VERTEX
  5
699
  8
R2V
 62
     0
 10
1214.0
 20
696.0
 30
0.0
 70
    32
  0
VERTEX
  5
69A
  8
R2V
 62
     0
 10
1216.0
 20
696.0
 30
0.0
 70
    32
  0
VERTEX
  5
69B
  8
R2V
 62
     0
 10
1221.0
 20
694.0
 30
0.0
 70
    32
  0
VERTEX
  5
69C
  8
R2V
 62
     0
 10
1255.0
 20
753.0
 30
0.0
 70
    32
  0
VERTEX
  5
69D
  8
R2V
 62
     0
 10
1269.0
 20
745.0
 30
0.0
 70
    32
  0
VERTEX
  5
69E
  8
R2V
 62
     0
 10
1235.0
 20
685.0
 30
0.0
 70
    32
  0
VERTEX
  5
69F
  8
R2V
 62
     0
 10
1239.0
 20
681.0
 30
0.0
 70
    32
  0
VERTEX
  5
6A0
  8
R2V
 62
     0
 10
1208.0
 20
657.0
 30
0.0
 70
    32
  0
SEQEND
  5
6A1
  8
R2V
 62
     0
  0
POLYLINE
  5
6A2
  8
R2V
 62
     0
 66
     1
 10
0.0
 20
0.0
 30
0.0
 70
     8
  0
VERTEX
  5
6A3
  8
R2V
 62
     0
 10
619.0
 20
668.0
 30
0.0
 70
    32
  0
VERTEX
  5
6A4
  8
R2V
 62
     0
 10
719.0
 20
838.0
 30
0.0
 70
    32
  0
VERTEX
  5
6A5
  8
R2V
 62
     0
 10
549.0
 20
939.0
 30
0.0
 70
    32
  0
VERTEX
  5
6A6
  8
R2V
 62
     0
 10
449.0
 20
769.0
 30
0.0
 70
    32
  0
VERTEX
  5
6A7
  8
R2V
 62
     0
 10
619.0
 20
668.0
 30
0.0
 70
    32
  0
SEQEND
  5
6A8
  8
R2V
 62
     0
  0
POLYLINE
  5
6A9
  8
R2V
 62
     0
 66
     1
 10
0.0
 20
0.0
 30
0.0
 70
     8
  0
VERTEX
  5
6AA
  8
R2V
 62
     0
 10
1511.0
 20
735.0
 30
0.0
 70
    32
  0
VERTEX
  5
6AB
  8
R2V
 62
     0
 10
1611.0
 20
905.0
 30
0.0
 70
    32
  0
VERTEX
  5
6AC
  8
R2V
 62
     0
 10
1441.0
 20
1005.0
 30
0.0
 70
    32
  0
VERTEX
  5
6AD
  8
R2V
 62
     0
 10
1341.0
 20
835.0
 30
0.0
 70
    32
  0
VERTEX
  5
6AE
  8
R2V
 62
     0
 10
1511.0
 20
735.0
 30
0.0
 70
    32
  0
SEQEND
  5
6AF
  8
R2V
 62
     0
  0
POLYLINE
  5
6B0
  8
R2V
 62
     0
 66
     1
 10
0.0
 20
0.0
 30
0.0
 70
     8
  0
VERTEX
  5
6B1
  8
R2V
 62
     0
 10
1000.0
 20
763.0
 30
0.0
 70
    32
  0
VERTEX
  5
6B2
  8
R2V
 62
     0
 10
1035.0
 20
823.0
 30
0.0
 70
    32
  0
VERTEX
  5
6B3
  8
R2V
 62
     0
 10
1041.0
 20
820.0
 30
0.0
 70
    32
  0
VERTEX
  5
6B4
  8
R2V
 62
     0
 10
1046.0
 20
859.0
 30
0.0
 70
    32
  0
VERTEX
  5
6B5
  8
R2V
 62
     0
 10
1016.0
 20
834.0
 30
0.0
 70
    32
  0
VERTEX
  5
6B6
  8
R2V
 62
     0
 10
1020.0
 20
830.0
 30
0.0
 70
    32
  0
VERTEX
  5
6B7
  8
R2V
 62
     0
 10
986.0
 20
771.0
 30
0.0
 70
    32
  0
VERTEX
  5
6B8
  8
R2V
 62
     0
 10
1000.0
 20
763.0
 30
0.0
 70
    32
  0
SEQEND
  5
6B9
  8
R2V
 62
     0
  0
POLYLINE
  5
6BA
  8
R2V
 62
     0
 66
     1
 10
0.0
 20
0.0
 30
0.0
 70
     8
  0
VERTEX
  5
6BB
  8
R2V
 62
     0
 10
958.0
 20
780.0
 30
0.0
 70
    32
  0
VERTEX
  5
6BC
  8
R2V
 62
     0
 10
1048.0
 20
933.0
 30
0.0
 70
    32
  0
VERTEX
  5
6BD
  8
R2V
 62
     0
 10
895.0
 20
1024.0
 30
0.0
 70
    32
  0
VERTEX
  5
6BE
  8
R2V
 62
     0
 10
805.0
 20
871.0
 30
0.0
 70
    32
  0
VERTEX
  5
6BF
  8
R2V
 62
     0
 10
958.0
 20
780.0
 30
0.0
 70
    32
  0
SEQEND
  5
6C0
  8
R2V
 62
     0
  0
POLYLINE
  5
6C1
  8
R2V
 62
     0
 66
     1
 10
0.0
 20
0.0
 30
0.0
 70
     8
  0
VERTEX
  5
6C2
  8
R2V
 62
     0
 10
1853.0
 20
826.0
 30
0.0
 70
    32
  0
VERTEX
  5
6C3
  8
R2V
 62
     0
 10
1953.0
 20
996.0
 30
0.0
 70
    32
  0
VERTEX
  5
6C4
  8
R2V
 62
     0
 10
1783.0
 20
1097.0
 30
0.0
 70
    32
  0
VERTEX
  5
6C5
  8
R2V
 62
     0
 10
1683.0
 20
927.0
 30
0.0
 70
    32
  0
VERTEX
  5
6C6
  8
R2V
 62
     0
 10
1853.0
 20
826.0
 30
0.0
 70
    32
  0
SEQEND
  5
6C7
  8
R2V
 62
     0
  0
POLYLINE
  5
6C8
  8
R2V
 62
     0
 66
     1
 10
0.0
 20
0.0
 30
0.0
 70
     8
  0
VERTEX
  5
6C9
  8
R2V
 62
     0
 10
1295.0
 20
860.0
 30
0.0
 70
    32
  0
VERTEX
  5
6CA
  8
R2V
 62
     0
 10
1395.0
 20
1030.0
 30
0.0
 70
    32
  0
VERTEX
  5
6CB
  8
R2V
 62
     0
 10
1225.0
 20
1130.0
 30
0.0
 70
    32
  0
VERTEX
  5
6CC
  8
R2V
 62
     0
 10
1125.0
 20
960.0
 30
0.0
 70
    32
  0
VERTEX
  5
6CD
  8
R2V
 62
     0
 10
1295.0
 20
860.0
 30
0.0
 70
    32
  0
SEQEND
  5
6CE
  8
R2V
 62
     0
  0
POLYLINE
  5
6CF
  8
R2V
 62
     0
 66
     1
 10
0.0
 20
0.0
 30
0.0
 70
     8
  0
VERTEX
  5
6D0
  8
R2V
 62
     0
 10
745.0
 20
892.0
 30
0.0
 70
    32
  0
VERTEX
  5
6D1
  8
R2V
 62
     0
 10
845.0
 20
1062.0
 30
0.0
 70
    32
  0
VERTEX
  5
6D2
  8
R2V
 62
     0
 10
675.0
 20
1162.0
 30
0.0
 70
    32
  0
VERTEX
  5
6D3
  8
R2V
 62
     0
 10
575.0
 20
992.0
 30
0.0
 70
    32
  0
VERTEX
  5
6D4
  8
R2V
 62
     0
 10
745.0
 20
892.0
 30
0.0
 70
    32
  0
SEQEND
  5
6D5
  8
R2V
 62
     0
  0
POLYLINE
  5
6D6
  8
R2V
 62
     0
 66
     1
 10
0.0
 20
0.0
 30
0.0
 70
     8
  0
VERTEX
  5
6D7
  8
R2V
 62
     0
 10
2121.0
 20
951.0
 30
0.0
 70
    32
  0
VERTEX
  5
6D8
  8
R2V
 62
     0
 10
2031.0
 20
1006.0
 30
0.0
 70
    32
  0
VERTEX
  5
6D9
  8
R2V
 62
     0
 10
2084.0
 20
1101.0
 30
0.0
 70
    32
  0
SEQEND
  5
6DA
  8
R2V
 62
     0
  0
POLYLINE
  5
6DB
  8
R2V
 62
     0
 66
     1
 10
0.0
 20
0.0
 30
0.0
 70
     8
  0
VERTEX
  5
6DC
  8
R2V
 62
     0
 10
1638.0
 20
954.0
 30
0.0
 70
    32
  0
VERTEX
  5
6DD
  8
R2V
 62
     0
 10
1738.0
 20
1124.0
 30
0.0
 70
    32
  0
VERTEX
  5
6DE
  8
R2V
 62
     0
 10
1568.0
 20
1225.0
 30
0.0
 70
    32
  0
VERTEX
  5
6DF
  8
R2V
 62
     0
 10
1468.0
 20
1055.0
 30
0.0
 70
    32
  0
VERTEX
  5
6E0
  8
R2V
 62
     0
 10
1638.0
 20
954.0
 30
0.0
 70
    32
  0
SEQEND
  5
6E1
  8
R2V
 62
     0
  0
POLYLINE
  5
6E2
  8
R2V
 62
     0
 66
     1
 10
0.0
 20
0.0
 30
0.0
 70
     8
  0
VERTEX
  5
6E3
  8
R2V
 62
     0
 10
1089.0
 20
988.0
 30
0.0
 70
    32
  0
VERTEX
  5
6E4
  8
R2V
 62
     0
 10
1189.0
 20
1158.0
 30
0.0
 70
    32
  0
VERTEX
  5
6E5
  8
R2V
 62
     0
 10
1019.0
 20
1258.0
 30
0.0
 70
    32
  0
VERTEX
  5
6E6
  8
R2V
 62
     0
 10
919.0
 20
1088.0
 30
0.0
 70
    32
  0
VERTEX
  5
6E7
  8
R2V
 62
     0
 10
1089.0
 20
988.0
 30
0.0
 70
    32
  0
SEQEND
  5
6E8
  8
R2V
 62
     0
  0
POLYLINE
  5
6E9
  8
R2V
 62
     0
 66
     1
 10
0.0
 20
0.0
 30
0.0
 70
     8
  0
VERTEX
  5
6EA
  8
R2V
 62
     0
 10
526.0
 20
1022.0
 30
0.0
 70
    32
  0
VERTEX
  5
6EB
  8
R2V
 62
     0
 10
627.0
 20
1192.0
 30
0.0
 70
    32
  0
VERTEX
  5
6EC
  8
R2V
 62
     0
 10
457.0
 20
1293.0
 30
0.0
 70
    32
  0
VERTEX
  5
6ED
  8
R2V
 62
     0
 10
356.0
 20
1123.0
 30
0.0
 70
    32
  0
VERTEX
  5
6EE
  8
R2V
 62
     0
 10
526.0
 20
1022.0
 30
0.0
 70
    32
  0
SEQEND
  5
6EF
  8
R2V
 62
     0
  0
POLYLINE
  5
6F0
  8
R2V
 62
     0
 66
     1
 10
0.0
 20
0.0
 30
0.0
 70
     8
  0
VERTEX
  5
6F1
  8
R2V
 62
     0
 10
1428.0
 20
1084.0
 30
0.0
 70
    32
  0
VERTEX
  5
6F2
  8
R2V
 62
     0
 10
1528.0
 20
1254.0
 30
0.0
 70
    32
  0
VERTEX
  5
6F3
  8
R2V
 62
     0
 10
1358.0
 20
1355.0
 30
0.0
 70
    32
  0
VERTEX
  5
6F4
  8
R2V
 62
     0
 10
1258.0
 20
1185.0
 30
0.0
 70
    32
  0
VERTEX
  5
6F5
  8
R2V
 62
     0
 10
1428.0
 20
1084.0
 30
0.0
 70
    32
  0
SEQEND
  5
6F6
  8
R2V
 62
     0
  0
POLYLINE
  5
6F7
  8
R2V
 62
     0
 66
     1
 10
0.0
 20
0.0
 30
0.0
 70
     8
  0
VERTEX
  5
6F8
  8
R2V
 62
     0
 10
874.0
 20
1114.0
 30
0.0
 70
    32
  0
VERTEX
  5
6F9
  8
R2V
 62
     0
 10
974.0
 20
1284.0
 30
0.0
 70
    32
  0
VERTEX
  5
6FA
  8
R2V
 62
     0
 10
804.0
 20
1384.0
 30
0.0
 70
    32
  0
VERTEX
  5
6FB
  8
R2V
 62
     0
 10
704.0
 20
1214.0
 30
0.0
 70
    32
  0
VERTEX
  5
6FC
  8
R2V
 62
     0
 10
874.0
 20
1114.0
 30
0.0
 70
    32
  0
SEQEND
  5
6FD
  8
R2V
 62
     0
  0
POLYLINE
  5
6FE
  8
R2V
 62
     0
 66
     1
 10
0.0
 20
0.0
 30
0.0
 70
     8
  0
VERTEX
  5
6FF
  8
R2V
 62
     0
 10
2097.0
 20
1268.0
 30
0.0
 70
    32
  0
VERTEX
  5
700
  8
R2V
 62
     0
 10
2121.0
 20
1309.0
 30
0.0
 70
    32
  0
SEQEND
  5
701
  8
R2V
 62
     0
  0
POLYLINE
  5
702
  8
R2V
 62
     0
 66
     1
 10
0.0
 20
0.0
 30
0.0
 70
     8
  0
VERTEX
  5
703
  8
R2V
 62
     0
 10
2097.0
 20
1268.0
 30
0.0
 70
    32
  0
VERTEX
  5
704
  8
R2V
 62
     0
 10
1937.0
 20
1360.0
 30
0.0
 70
    32
  0
SEQEND
  5
705
  8
R2V
 62
     0
  0
POLYLINE
  5
706
  8
R2V
 62
     0
 66
     1
 10
0.0
 20
0.0
 30
0.0
 70
     8
  0
VERTEX
  5
707
  8
R2V
 62
     0
 10
774.0
 20
1299.0
 30
0.0
 70
    32
  0
VERTEX
  5
708
  8
R2V
 62
     0
 10
806.0
 20
1354.0
 30
0.0
 70
    32
  0
VERTEX
  5
709
  8
R2V
 62
     0
 10
869.0
 20
1317.0
 30
0.0
 70
    32
  0
SEQEND
  5
70A
  8
R2V
 62
     0
  0
POLYLINE
  5
70B
  8
R2V
 62
     0
 66
     1
 10
0.0
 20
0.0
 30
0.0
 70
     8
  0
VERTEX
  5
70C
  8
R2V
 62
     0
 10
774.0
 20
1299.0
 30
0.0
 70
    32
  0
VERTEX
  5
70D
  8
R2V
 62
     0
 10
761.0
 20
1308.0
 30
0.0
 70
    32
  0
SEQEND
  5
70E
  8
R2V
 62
     0
  0
POLYLINE
  5
70F
  8
R2V
 62
     0
 66
     1
 10
0.0
 20
0.0
 30
0.0
 70
     8
  0
VERTEX
  5
710
  8
R2V
 62
     0
 10
759.0
 20
1308.0
 30
0.0
 70
    32
  0
VERTEX
  5
711
  8
R2V
 62
     0
 10
703.0
 20
1346.0
 30
0.0
 70
    32
  0
VERTEX
  5
712
  8
R2V
 62
     0
 10
663.0
 20
1342.0
 30
0.0
 70
    32
  0
SEQEND
  5
713
  8
R2V
 62
     0
  0
POLYLINE
  5
714
  8
R2V
 62
     0
 66
     1
 10
0.0
 20
0.0
 30
0.0
 70
     8
  0
VERTEX
  5
715
  8
R2V
 62
     0
 10
461.0
 20
1443.0
 30
0.0
 70
    32
  0
VERTEX
  5
716
  8
R2V
 62
     0
 10
481.0
 20
1444.0
 30
0.0
 70
    32
  0
VERTEX
  5
717
  8
R2V
 62
     0
 10
489.0
 20
1448.0
 30
0.0
 70
    32
  0
VERTEX
  5
718
  8
R2V
 62
     0
 10
493.0
 20
1453.0
 30
0.0
 70
    32
  0
VERTEX
  5
719
  8
R2V
 62
     0
 10
490.0
 20
1461.0
 30
0.0
 70
    32
  0
VERTEX
  5
71A
  8
R2V
 62
     0
 10
481.0
 20
1467.0
 30
0.0
 70
    32
  0
VERTEX
  5
71B
  8
R2V
 62
     0
 10
456.0
 20
1472.0
 30
0.0
 70
    32
  0
VERTEX
  5
71C
  8
R2V
 62
     0
 10
448.0
 20
1478.0
 30
0.0
 70
    32
  0
VERTEX
  5
71D
  8
R2V
 62
     0
 10
447.0
 20
1484.0
 30
0.0
 70
    32
  0
VERTEX
  5
71E
  8
R2V
 62
     0
 10
453.0
 20
1490.0
 30
0.0
 70
    32
  0
VERTEX
  5
71F
  8
R2V
 62
     0
 10
478.0
 20
1492.0
 30
0.0
 70
    32
  0
VERTEX
  5
720
  8
R2V
 62
     0
 10
489.0
 20
1487.0
 30
0.0
 70
    32
  0
VERTEX
  5
721
  8
R2V
 62
     0
 10
493.0
 20
1482.0
 30
0.0
 70
    32
  0
SEQEND
  5
722
  8
R2V
 62
     0
  0
POLYLINE
  5
723
  8
R2V
 62
     0
 66
     1
 10
0.0
 20
0.0
 30
0.0
 70
     8
  0
VERTEX
  5
724
  8
R2V
 62
     0
 10
461.0
 20
1443.0
 30
0.0
 70
    32
  0
VERTEX
  5
725
  8
R2V
 62
     0
 10
449.0
 20
1448.0
 30
0.0
 70
    32
  0
VERTEX
  5
726
  8
R2V
 62
     0
 10
447.0
 20
1452.0
 30
0.0
 70
    32
  0
SEQEND
  5
727
  8
R2V
 62
     0
  0
POLYLINE
  5
728
  8
R2V
 62
     0
 66
     1
 10
0.0
 20
0.0
 30
0.0
 70
     8
  0
VERTEX
  5
729
  8
R2V
 62
     0
 10
872.0
 20
1443.0
 30
0.0
 70
    32
  0
VERTEX
  5
72A
  8
R2V
 62
     0
 10
889.0
 20
1444.0
 30
0.0
 70
    32
  0
VERTEX
  5
72B
  8
R2V
 62
     0
 10
903.0
 20
1454.0
 30
0.0
 70
    32
  0
VERTEX
  5
72C
  8
R2V
 62
     0
 10
907.0
 20
1463.0
 30
0.0
 70
    32
  0
VERTEX
  5
72D
  8
R2V
 62
     0
 10
905.0
 20
1477.0
 30
0.0
 70
    32
  0
VERTEX
  5
72E
  8
R2V
 62
     0
 10
898.0
 20
1486.0
 30
0.0
 70
    32
  0
VERTEX
  5
72F
  8
R2V
 62
     0
 10
887.0
 20
1492.0
 30
0.0
 70
    32
  0
VERTEX
  5
730
  8
R2V
 62
     0
 10
869.0
 20
1491.0
 30
0.0
 70
    32
  0
VERTEX
  5
731
  8
R2V
 62
     0
 10
856.0
 20
1482.0
 30
0.0
 70
    32
  0
VERTEX
  5
732
  8
R2V
 62
     0
 10
852.0
 20
1472.0
 30
0.0
 70
    32
  0
VERTEX
  5
733
  8
R2V
 62
     0
 10
854.0
 20
1458.0
 30
0.0
 70
    32
  0
VERTEX
  5
734
  8
R2V
 62
     0
 10
861.0
 20
1449.0
 30
0.0
 70
    32
  0
VERTEX
  5
735
  8
R2V
 62
     0
 10
872.0
 20
1443.0
 30
0.0
 70
    32
  0
SEQEND
  5
736
  8
R2V
 62
     0
  0
POLYLINE
  5
737
  8
R2V
 62
     0
 66
     1
 10
0.0
 20
0.0
 30
0.0
 70
     8
  0
VERTEX
  5
738
  8
R2V
 62
     0
 10
1197.0
 20
1443.0
 30
0.0
 70
    32
  0
VERTEX
  5
739
  8
R2V
 62
     0
 10
1214.0
 20
1444.0
 30
0.0
 70
    32
  0
VERTEX
  5
73A
  8
R2V
 62
     0
 10
1227.0
 20
1452.0
 30
0.0
 70
    32
  0
SEQEND
  5
73B
  8
R2V
 62
     0
  0
POLYLINE
  5
73C
  8
R2V
 62
     0
 66
     1
 10
0.0
 20
0.0
 30
0.0
 70
     8
  0
VERTEX
  5
73D
  8
R2V
 62
     0
 10
1197.0
 20
1443.0
 30
0.0
 70
    32
  0
VERTEX
  5
73E
  8
R2V
 62
     0
 10
1183.0
 20
1451.0
 30
0.0
 70
    32
  0
VERTEX
  5
73F
  8
R2V
 62
     0
 10
1176.0
 20
1463.0
 30
0.0
 70
    32
  0
VERTEX
  5
740
  8
R2V
 62
     0
 10
1178.0
 20
1476.0
 30
0.0
 70
    32
  0
VERTEX
  5
741
  8
R2V
 62
     0
 10
1187.0
 20
1487.0
 30
0.0
 70
    32
  0
VERTEX
  5
742
  8
R2V
 62
     0
 10
1197.0
 20
1492.0
 30
0.0
 70
    32
  0
VERTEX
  5
743
  8
R2V
 62
     0
 10
1211.0
 20
1492.0
 30
0.0
 70
    32
  0
VERTEX
  5
744
  8
R2V
 62
     0
 10
1228.0
 20
1482.0
 30
0.0
 70
    32
  0
SEQEND
  5
745
  8
R2V
 62
     0
  0
POLYLINE
  5
746
  8
R2V
 62
     0
 66
     1
 10
0.0
 20
0.0
 30
0.0
 70
     8
  0
VERTEX
  5
747
  8
R2V
 62
     0
 10
1333.0
 20
1443.0
 30
0.0
 70
    32
  0
VERTEX
  5
748
  8
R2V
 62
     0
 10
1351.0
 20
1444.0
 30
0.0
 70
    32
  0
VERTEX
  5
749
  8
R2V
 62
     0
 10
1364.0
 20
1454.0
 30
0.0
 70
    32
  0
VERTEX
  5
74A
  8
R2V
 62
     0
 10
1369.0
 20
1463.0
 30
0.0
 70
    32
  0
VERTEX
  5
74B
  8
R2V
 62
     0
 10
1367.0
 20
1476.0
 30
0.0
 70
    32
  0
VERTEX
  5
74C
  8
R2V
 62
     0
 10
1358.0
 20
1487.0
 30
0.0
 70
    32
  0
VERTEX
  5
74D
  8
R2V
 62
     0
 10
1348.0
 20
1492.0
 30
0.0
 70
    32
  0
VERTEX
  5
74E
  8
R2V
 62
     0
 10
1330.0
 20
1491.0
 30
0.0
 70
    32
  0
VERTEX
  5
74F
  8
R2V
 62
     0
 10
1316.0
 20
1480.0
 30
0.0
 70
    32
  0
VERTEX
  5
750
  8
R2V
 62
     0
 10
1313.0
 20
1472.0
 30
0.0
 70
    32
  0
VERTEX
  5
751
  8
R2V
 62
     0
 10
1315.0
 20
1458.0
 30
0.0
 70
    32
  0
VERTEX
  5
752
  8
R2V
 62
     0
 10
1322.0
 20
1449.0
 30
0.0
 70
    32
  0
VERTEX
  5
753
  8
R2V
 62
     0
 10
1333.0
 20
1443.0
 30
0.0
 70
    32
  0
SEQEND
  5
754
  8
R2V
 62
     0
  0
POLYLINE
  5
755
  8
R2V
 62
     0
 66
     1
 10
0.0
 20
0.0
 30
0.0
 70
     8
  0
VERTEX
  5
756
  8
R2V
 62
     0
 10
1612.0
 20
1443.0
 30
0.0
 70
    32
  0
VERTEX
  5
757
  8
R2V
 62
     0
 10
1636.0
 20
1467.0
 30
0.0
 70
    32
  0
VERTEX
  5
758
  8
R2V
 62
     0
 10
1659.0
 20
1443.0
 30
0.0
 70
    32
  0
SEQEND
  5
759
  8
R2V
 62
     0
  0
POLYLINE
  5
75A
  8
R2V
 62
     0
 66
     1
 10
0.0
 20
0.0
 30
0.0
 70
     8
  0
VERTEX
  5
75B
  8
R2V
 62
     0
 10
1975.0
 20
1443.0
 30
0.0
 70
    32
  0
VERTEX
  5
75C
  8
R2V
 62
     0
 10
1975.0
 20
1516.0
 30
0.0
 70
    32
  0
SEQEND
  5
75D
  8
R2V
 62
     0
  0
POLYLINE
  5
75E
  8
R2V
 62
     0
 66
     1
 10
0.0
 20
0.0
 30
0.0
 70
     8
  0
VERTEX
  5
75F
  8
R2V
 62
     0
 10
1635.0
 20
1468.0
 30
0.0
 70
    32
  0
VERTEX
  5
760
  8
R2V
 62
     0
 10
1658.0
 20
1491.0
 30
0.0
 70
    32
  0
SEQEND
  5
761
  8
R2V
 62
     0
  0
POLYLINE
  5
762
  8
R2V
 62
     0
 66
     1
 10
0.0
 20
0.0
 30
0.0
 70
     8
  0
VERTEX
  5
763
  8
R2V
 62
     0
 10
1635.0
 20
1468.0
 30
0.0
 70
    32
  0
VERTEX
  5
764
  8
R2V
 62
     0
 10
1613.0
 20
1491.0
 30
0.0
 70
    32
  0
SEQEND
  5
765
  8
R2V
 62
     0
  0
ENDSEC
  0
EOF
